  0
SECTION
  2
HEADER
  9
$ACADVER
  1
AC1015
  9
$ACADMAINTVER
 70
     6
  9
$DWGCODEPAGE
  3
ANSI_1252
  9
$INSBASE
 10
0.0
 20
0.0
 30
0.0
  9
$EXTMIN
 10
0.0
 20
0.0
 30
0.0
  9
$EXTMAX
 10
2100.0
 20
2970.0
 30
0.0
  9
$LIMMIN
 10
0.0
 20
0.0
  9
$LIMMAX
 10
2100.0
 20
2970.0
  9
$ORTHOMODE
 70
     0
  9
$REGENMODE
 70
     1
  9
$FILLMODE
 70
     1
  9
$QTEXTMODE
 70
     0
  9
$MIRRTEXT
 70
     1
  9
$LTSCALE
 40
10.0
  9
$ATTMODE
 70
     1
  9
$TEXTSIZE
 40
2.5
  9
$TRACEWID
 40
1.0
  9
$TEXTSTYLE
  7
Standard
  9
$CLAYER
  8
0
  9
$CELTYPE
  6
ByLayer
  9
$CECOLOR
 62
     7
  9
$CELTSCALE
 40
1.0
  9
$DISPSILH
 70
     0
  9
$DIMSCALE
 40
10.0
  9
$DIMASZ
 40
3.5
  9
$DIMEXO
 40
0.625
  9
$DIMDLI
 40
3.75
  9
$DIMRND
 40
0.0
  9
$DIMDLE
 40
0.0
  9
$DIMEXE
 40
1.25
  9
$DIMTP
 40
0.0
  9
$DIMTM
 40
0.0
  9
$DIMTXT
 40
3.5
  9
$DIMCEN
 40
2.5
  9
$DIMTSZ
 40
0.0
  9
$DIMTOL
 70
     0
  9
$DIMLIM
 70
     0
  9
$DIMTIH
 70
     0
  9
$DIMTOH
 70
     0
  9
$DIMSE1
 70
     0
  9
$DIMSE2
 70
     0
  9
$DIMTAD
 70
     1
  9
$DIMZIN
 70
     8
  9
$DIMBLK
  1

  9
$DIMASO
 70
     1
  9
$DIMSHO
 70
     1
  9
$DIMPOST
  1

  9
$DIMAPOST
  1

  9
$DIMALT
 70
     0
  9
$DIMALTD
 70
     3
  9
$DIMALTF
 40
0.03937
  9
$DIMLFAC
 40
1.0
  9
$DIMTOFL
 70
     1
  9
$DIMTVP
 40
0.0
  9
$DIMTIX
 70
     0
  9
$DIMSOXD
 70
     0
  9
$DIMSAH
 70
     0
  9
$DIMBLK1
  1

  9
$DIMBLK2
  1

  9
$DIMSTYLE
  2
ISO-25
  9
$DIMCLRD
 70
     0
  9
$DIMCLRE
 70
     0
  9
$DIMCLRT
 70
     0
  9
$DIMTFAC
 40
1.0
  9
$DIMGAP
 40
0.625
  9
$DIMJUST
 70
     0
  9
$DIMSD1
 70
     0
  9
$DIMSD2
 70
     0
  9
$DIMTOLJ
 70
     0
  9
$DIMTZIN
 70
     8
  9
$DIMALTZ
 70
     0
  9
$DIMALTTZ
 70
     0
  9
$DIMUPT
 70
     0
  9
$DIMDEC
 70
     2
  9
$DIMTDEC
 70
     2
  9
$DIMALTU
 70
     2
  9
$DIMALTTD
 70
     3
  9
$DIMTXSTY
  7
Standard
  9
$DIMAUNIT
 70
     0
  9
$DIMADEC
 70
     0
  9
$DIMALTRND
 40
0.0
  9
$DIMAZIN
 70
     0
  9
$DIMDSEP
 70
    44
  9
$DIMATFIT
 70
     3
  9
$DIMFRAC
 70
     0
  9
$DIMLDRBLK
  1

  9
$DIMLUNIT
 70
     2
  9
$DIMLWD
 70
    -2
  9
$DIMLWE
 70
    -2
  9
$DIMTMOVE
 70
     0
  9
$LUNITS
 70
     2
  9
$LUPREC
 70
     4
  9
$SKETCHINC
 40
1.0
  9
$FILLETRAD
 40
10.0
  9
$AUNITS
 70
     0
  9
$AUPREC
 70
     0
  9
$MENU
  1
.
  9
$ELEVATION
 40
0.0
  9
$PELEVATION
 40
0.0
  9
$THICKNESS
 40
0.0
  9
$LIMCHECK
 70
     0
  9
$CHAMFERA
 40
10.0
  9
$CHAMFERB
 40
10.0
  9
$CHAMFERC
 40
20.0
  9
$CHAMFERD
 40
0.0
  9
$SKPOLY
 70
     0
  9
$TDCREATE
 40
2455212.573077558
  9
$TDUCREATE
 40
2455212.531410891
  9
$TDUPDATE
 40
2455212.573077569
  9
$TDUUPDATE
 40
2455212.531410903
  9
$TDINDWG
 40
0.0000000116
  9
$TDUSRTIMER
 40
0.0000000116
  9
$USRTIMER
 70
     1
  9
$ANGBASE
 50
0.0
  9
$ANGDIR
 70
     0
  9
$PDMODE
 70
     0
  9
$PDSIZE
 40
0.0
  9
$PLINEWID
 40
0.0
  9
$SPLFRAME
 70
     0
  9
$SPLINETYPE
 70
     6
  9
$SPLINESEGS
 70
     8
  9
$HANDSEED
  5
555
  9
$SURFTAB1
 70
     6
  9
$SURFTAB2
 70
     6
  9
$SURFTYPE
 70
     6
  9
$SURFU
 70
     6
  9
$SURFV
 70
     6
  9
$UCSBASE
  2

  9
$UCSNAME
  2

  9
$UCSORG
 10
0.0
 20
0.0
 30
0.0
  9
$UCSXDIR
 10
1.0
 20
0.0
 30
0.0
  9
$UCSYDIR
 10
0.0
 20
1.0
 30
0.0
  9
$UCSORTHOREF
  2

  9
$UCSORTHOVIEW
 70
     0
  9
$UCSORGTOP
 10
0.0
 20
0.0
 30
0.0
  9
$UCSORGBOTTOM
 10
0.0
 20
0.0
 30
0.0
  9
$UCSORGLEFT
 10
0.0
 20
0.0
 30
0.0
  9
$UCSORGRIGHT
 10
0.0
 20
0.0
 30
0.0
  9
$UCSORGFRONT
 10
0.0
 20
0.0
 30
0.0
  9
$UCSORGBACK
 10
0.0
 20
0.0
 30
0.0
  9
$PUCSBASE
  2

  9
$PUCSNAME
  2

  9
$PUCSORG
 10
0.0
 20
0.0
 30
0.0
  9
$PUCSXDIR
 10
1.0
 20
0.0
 30
0.0
  9
$PUCSYDIR
 10
0.0
 20
1.0
 30
0.0
  9
$PUCSORTHOREF
  2

  9
$PUCSORTHOVIEW
 70
     0
  9
$PUCSORGTOP
 10
0.0
 20
0.0
 30
0.0
  9
$PUCSORGBOTTOM
 10
0.0
 20
0.0
 30
0.0
  9
$PUCSORGLEFT
 10
0.0
 20
0.0
 30
0.0
  9
$PUCSORGRIGHT
 10
0.0
 20
0.0
 30
0.0
  9
$PUCSORGFRONT
 10
0.0
 20
0.0
 30
0.0
  9
$PUCSORGBACK
 10
0.0
 20
0.0
 30
0.0
  9
$USERI1
 70
     0
  9
$USERI2
 70
     0
  9
$USERI3
 70
     0
  9
$USERI4
 70
     0
  9
$USERI5
 70
     0
  9
$USERR1
 40
0.0
  9
$USERR2
 40
0.0
  9
$USERR3
 40
0.0
  9
$USERR4
 40
0.0
  9
$USERR5
 40
0.0
  9
$WORLDVIEW
 70
     1
  9
$SHADEDGE
 70
     3
  9
$SHADEDIF
 70
    70
  9
$TILEMODE
 70
     1
  9
$MAXACTVP
 70
    64
  9
$PINSBASE
 10
0.0
 20
0.0
 30
0.0
  9
$PLIMCHECK
 70
     0
  9
$PEXTMIN
 10
0.0
 20
0.0
 30
0.0
  9
$PEXTMAX
 10
2100.0
 20
2970.0
 30
0.0
  9
$PLIMMIN
 10
0.0
 20
0.0
  9
$PLIMMAX
 10
2100.0
 20
2970.0
  9
$UNITMODE
 70
     0
  9
$VISRETAIN
 70
     1
  9
$PLINEGEN
 70
     0
  9
$PSLTSCALE
 70
     1
  9
$TREEDEPTH
 70
  3020
  9
$CMLSTYLE
  2
Standard
  9
$CMLJUST
 70
     0
  9
$CMLSCALE
 40
20.0
  9
$PROXYGRAPHICS
 70
     1
  9
$MEASUREMENT
 70
     1
  9
$CELWEIGHT
370
    -1
  9
$ENDCAPS
280
     0
  9
$JOINSTYLE
280
     0
  9
$LWDISPLAY
290
     0
  9
$INSUNITS
 70
     4
  9
$HYPERLINKBASE
  1

  9
$STYLESHEET
  1

  9
$XEDIT
290
     1
  9
$CEPSNTYPE
380
     0
  9
$PSTYLEMODE
290
     1
  9
$FINGERPRINTGUID
  2
{FAEB1C30-E019-11D5-929B-00C0DF256EC4}
  9
$VERSIONGUID
  2
{FAEB1C32-E019-11D5-929B-00C0DF256EC4}
  9
$EXTNAMES
290
     1
  9
$PSVPSCALE
 40
0.0
  9
$OLESTARTUP
290
     0
  0
ENDSEC
  0
SECTION
  2
CLASSES
  0
CLASS
  1
ACDBDICTIONARYWDFLT
  2
AcDbDictionaryWithDefault
  3
ObjectDBX Classes
 90
        0
280
     0
281
     0
  0
CLASS
  1
ACDBPLACEHOLDER
  2
AcDbPlaceHolder
  3
ObjectDBX Classes
 90
        0
280
     0
281
     0
  0
CLASS
  1
LAYOUT
  2
AcDbLayout
  3
ObjectDBX Classes
 90
        0
280
     0
281
     0
  0
ENDSEC
  0
SECTION
  2
TABLES
  0
TABLE
  2
VPORT
  5
8
330
0
100
AcDbSymbolTable
 70
     2
  0
VPORT
  5
29
330
8
100
AcDbSymbolTableRecord
100
AcDbViewportTableRecord
  2
*ACTIVE
 70
     0
 10
0.0
 20
0.0
 11
1.0
 21
1.0
 12
1050.0
 22
1485.0
 13
0.0
 23
0.0
 14
1.0
 24
1.0
 15
0.0
 25
0.0
 16
0.0
 26
0.0
 36
1.0
 17
0.0
 27
0.0
 37
0.0
 40
2970.0
 41
0.707071
 42
50.0
 43
0.0
 44
0.0
 50
0.0
 51
0.0
 71
    16
 72
   100
 73
     1
 74
     0
 75
     0
 76
     0
 77
     0
 78
     0
281
     0
 65
     0
110
0.0
120
0.0
130
0.0
111
1.0
121
0.0
131
0.0
112
0.0
122
1.0
132
0.0
 79
     0
146
0.0
  0
ENDTAB
  0
TABLE
  2
LTYPE
  5
5
330
0
100
AcDbSymbolTable
 70
     3
  0
LTYPE
  5
14
330
5
100
AcDbSymbolTableRecord
100
AcDbLinetypeTableRecord
  2
ByBlock
 70
     0
  3

 72
    65
 73
     0
 40
0.0
  0
LTYPE
  5
15
330
5
100
AcDbSymbolTableRecord
100
AcDbLinetypeTableRecord
  2
ByLayer
 70
     0
  3

 72
    65
 73
     0
 40
0.0
  0
LTYPE
  5
16
330
5
100
AcDbSymbolTableRecord
100
AcDbLinetypeTableRecord
  2
Continuous
 70
     0
  3
Solid line
 72
    65
 73
     0
 40
0.0
  0
LTYPE
  5
2A
330
5
100
AcDbSymbolTableRecord
100
AcDbLinetypeTableRecord
  2
DASHED
 70
     0
  3
__ __ __ __ __
 72
    65
 73
     2
 40
6.25
 49
5.0
 74
     4
 75
     0
340
0
 46
1.0
 50
0.0
 44
0.0
 45
0.0
 49
-1.25
 74
     4
 75
     0
340
0
 46
1.0
 50
0.0
 44
0.0
 45
0.0
  0
LTYPE
  5
113
330
5
100
AcDbSymbolTableRecord
100
AcDbLinetypeTableRecord
  2
CENTER
 70
     0
  3
__ . __ . __ . __ . __
 72
    65
 73
     4
 40
7.5
 49
5.0
 74
     4
 75
     0
340
0
 46
1.0
 50
0.0
 44
0.0
 45
0.0
 49
-1.25
 74
     4
 75
     0
340
0
 46
1.0
 50
0.0
 44
0.0
 45
0.0
 49
0.0
 74
     4
 75
     0
340
0
 46
1.0
 50
0.0
 44
0.0
 45
0.0
 49
-1.25
 74
     4
 75
     0
340
0
 46
1.0
 50
0.0
 44
0.0
 45
0.0
  0
ENDTAB
  0
TABLE
  2
LAYER
  5
2
330
0
100
AcDbSymbolTable
 70
    15
  0
LAYER
  5
10
330
2
100
AcDbSymbolTableRecord
100
AcDbLayerTableRecord
  2
0
 70
     0
 62
     7
  6
Continuous
370
    -3
390
F
  0
LAYER
  5
2B
330
2
100
AcDbSymbolTableRecord
100
AcDbLayerTableRecord
  2
LC-INFO-1-10-mm-A4H-0
 70
     1
 62
     7
  6
ByBlock
370
    -3
390
F
  0
LAYER
  5
2C
330
2
100
AcDbSymbolTableRecord
100
AcDbLayerTableRecord
  2
LC-CUT-HIDDEN
 70
     0
 62
     7
  6
DASHED
370
    -3
390
F
  0
LAYER
  5
2D
330
2
100
AcDbSymbolTableRecord
100
AcDbLayerTableRecord
  2
LC-VIEWPORT
 70
     0
 62
     7
  6
ByBlock
370
    -3
390
F
  0
LAYER
  5
2E
330
2
100
AcDbSymbolTableRecord
100
AcDbLayerTableRecord
  2
LC-3D-HIDDEN
 70
     0
 62
     9
  6
DASHED
370
    -3
390
F
  0
LAYER
  5
33
330
2
100
AcDbSymbolTableRecord
100
AcDbLayerTableRecord
  2
LC-001-111-----0
 70
     0
 62
   253
  6
ByBlock
370
    -3
390
F
  0
LAYER
  5
A1
330
2
100
AcDbSymbolTableRecord
100
AcDbLayerTableRecord
  2
LC-002-002-----0
 70
     0
 62
     1
  6
ByBlock
370
    -3
390
F
  0
LAYER
  5
102
330
2
100
AcDbSymbolTableRecord
100
AcDbLayerTableRecord
  2
LC-003-230-ZVN-0
 70
     0
 62
     2
  6
ByBlock
370
    -3
390
F
  0
LAYER
  5
104
330
2
100
AcDbSymbolTableRecord
100
AcDbLayerTableRecord
  2
LC-004-002-RND-0
 70
     0
 62
     1
  6
ByBlock
370
    -3
390
F
  0
LAYER
  5
114
330
2
100
AcDbSymbolTableRecord
100
AcDbLayerTableRecord
  2
LC-005-006-MLN-0
 70
     0
 62
     2
  6
CENTER
370
    -3
390
F
  0
LAYER
  5
127
330
2
100
AcDbSymbolTableRecord
100
AcDbLayerTableRecord
  2
LC-006-003-----0
 70
     0
 62
     7
  6
ByBlock
370
    -3
390
F
  0
LAYER
  5
129
330
2
100
AcDbSymbolTableRecord
100
AcDbLayerTableRecord
  2
LC-007-003-MTG-0
 70
     0
 62
     2
  6
ByBlock
370
    -3
390
F
  0
LAYER
  5
138
330
2
100
AcDbSymbolTableRecord
100
AcDbLayerTableRecord
  2
LC-008-003-MTH-0
 70
     0
 62
     2
  6
ByBlock
370
    -3
390
F
  0
LAYER
  5
1CF
330
2
100
AcDbSymbolTableRecord
100
AcDbLayerTableRecord
  2
LC-009-100-D00-0
 70
     0
 62
    44
  6
ByBlock
370
    -3
390
F
  0
LAYER
  5
52C
330
2
100
AcDbSymbolTableRecord
100
AcDbLayerTableRecord
  2
LC-010-004-----0
 70
     0
 62
     7
  6
ByBlock
370
    -3
390
F
  0
ENDTAB
  0
TABLE
  2
STYLE
  5
3
330
0
100
AcDbSymbolTable
 70
     2
  0
STYLE
  5
11
330
3
100
AcDbSymbolTableRecord
100
AcDbTextStyleTableRecord
  2
Standard
 70
     0
 40
0.0
 41
1.0
 50
0.0
 71
     0
 42
2.5
  3
txt
  4

  0
STYLE
  5
2F
330
3
100
AcDbSymbolTableRecord
100
AcDbTextStyleTableRecord
  2
LCTX0-400-0-0pDIN-Schrift
 70
     0
 40
0.0
 41
0.7
 50
0.0
 71
     0
 42
3.5
  3
TXT
  4

  0
ENDTAB
  0
TABLE
  2
VIEW
  5
6
330
0
100
AcDbSymbolTable
 70
     0
  0
ENDTAB
  0
TABLE
  2
UCS
  5
7
330
0
100
AcDbSymbolTable
 70
     0
  0
ENDTAB
  0
TABLE
  2
APPID
  5
9
330
0
100
AcDbSymbolTable
 70
     1
  0
APPID
  5
12
330
9
100
AcDbSymbolTableRecord
100
AcDbRegAppTableRecord
  2
ACAD
 70
     0
  0
ENDTAB
  0
TABLE
  2
DIMSTYLE
  5
A
330
0
100
AcDbSymbolTable
 70
     1
100
AcDbDimStyleTable
  0
DIMSTYLE
105
27
330
A
100
AcDbSymbolTableRecord
100
AcDbDimStyleTableRecord
  2
ISO-25
 70
     0
 41
2.5
 42
0.625
 43
3.75
 44
1.25
 73
     0
 74
     0
 77
     1
 78
     8
140
2.5
141
2.5
143
0.03937
147
0.625
171
     3
172
     1
271
     2
272
     2
274
     3
278
    44
283
     0
284
     8
340
11
  0
ENDTAB
  0
TABLE
  2
BLOCK_RECORD
  5
1
330
0
100
AcDbSymbolTable
 70
    29
  0
BLOCK_RECORD
  5
1F
330
1
100
AcDbSymbolTableRecord
100
AcDbBlockTableRecord
  2
*Model_Space
340
22
  0
BLOCK_RECORD
  5
1B
330
1
100
AcDbSymbolTableRecord
100
AcDbBlockTableRecord
  2
*Paper_Space
340
1E
  0
BLOCK_RECORD
  5
23
330
1
100
AcDbSymbolTableRecord
100
AcDbBlockTableRecord
  2
*Paper_Space0
340
26
  0
BLOCK_RECORD
  5
30
330
1
100
AcDbSymbolTableRecord
100
AcDbBlockTableRecord
  2
SYM1
340
0
102
{BLKREFS
331
103
102
}
  0
BLOCK_RECORD
  5
124
330
1
100
AcDbSymbolTableRecord
100
AcDbBlockTableRecord
  2
LCDIM1
340
0
102
{BLKREFS
331
134
102
}
  0
BLOCK_RECORD
  5
135
330
1
100
AcDbSymbolTableRecord
100
AcDbBlockTableRecord
  2
LCDIM2
340
0
102
{BLKREFS
331
14F
102
}
  0
BLOCK_RECORD
  5
151
330
1
100
AcDbSymbolTableRecord
100
AcDbBlockTableRecord
  2
LCDIM3
340
0
102
{BLKREFS
331
16A
102
}
  0
BLOCK_RECORD
  5
21F
330
1
100
AcDbSymbolTableRecord
100
AcDbBlockTableRecord
  2
LCDIM4
340
0
102
{BLKREFS
331
238
102
}
  0
BLOCK_RECORD
  5
239
330
1
100
AcDbSymbolTableRecord
100
AcDbBlockTableRecord
  2
LCDIM5
340
0
102
{BLKREFS
331
252
102
}
  0
BLOCK_RECORD
  5
255
330
1
100
AcDbSymbolTableRecord
100
AcDbBlockTableRecord
  2
LCDIM6
340
0
102
{BLKREFS
331
26E
102
}
  0
BLOCK_RECORD
  5
26F
330
1
100
AcDbSymbolTableRecord
100
AcDbBlockTableRecord
  2
LCDIM7
340
0
102
{BLKREFS
331
27D
102
}
  0
BLOCK_RECORD
  5
2C9
330
1
100
AcDbSymbolTableRecord
100
AcDbBlockTableRecord
  2
POLY1
340
0
102
{BLKREFS
331
2CD
102
}
  0
BLOCK_RECORD
  5
2DD
330
1
100
AcDbSymbolTableRecord
100
AcDbBlockTableRecord
  2
POLY2
340
0
102
{BLKREFS
331
2EC
102
}
  0
BLOCK_RECORD
  5
2EE
330
1
100
AcDbSymbolTableRecord
100
AcDbBlockTableRecord
  2
POLY3
340
0
102
{BLKREFS
331
2FD
102
}
  0
BLOCK_RECORD
  5
2FF
330
1
100
AcDbSymbolTableRecord
100
AcDbBlockTableRecord
  2
POLY4
340
0
102
{BLKREFS
331
30E
102
}
  0
BLOCK_RECORD
  5
34C
330
1
100
AcDbSymbolTableRecord
100
AcDbBlockTableRecord
  2
POLY5
340
0
102
{BLKREFS
331
363
102
}
  0
BLOCK_RECORD
  5
364
330
1
100
AcDbSymbolTableRecord
100
AcDbBlockTableRecord
  2
POLY6
340
0
102
{BLKREFS
331
36D
102
}
  0
BLOCK_RECORD
  5
36E
330
1
100
AcDbSymbolTableRecord
100
AcDbBlockTableRecord
  2
POLY7
340
0
102
{BLKREFS
331
37F
102
}
  0
BLOCK_RECORD
  5
380
330
1
100
AcDbSymbolTableRecord
100
AcDbBlockTableRecord
  2
POLY8
340
0
102
{BLKREFS
331
3A9
102
}
  0
BLOCK_RECORD
  5
3DC
330
1
100
AcDbSymbolTableRecord
100
AcDbBlockTableRecord
  2
POLY9
340
0
102
{BLKREFS
331
3E5
102
}
  0
BLOCK_RECORD
  5
3E6
330
1
100
AcDbSymbolTableRecord
100
AcDbBlockTableRecord
  2
POLY10
340
0
102
{BLKREFS
331
3EF
102
}
  0
BLOCK_RECORD
  5
3F0
330
1
100
AcDbSymbolTableRecord
100
AcDbBlockTableRecord
  2
POLY11
340
0
102
{BLKREFS
331
3F9
102
}
  0
BLOCK_RECORD
  5
3FA
330
1
100
AcDbSymbolTableRecord
100
AcDbBlockTableRecord
  2
POLY12
340
0
102
{BLKREFS
331
445
102
}
  0
BLOCK_RECORD
  5
446
330
1
100
AcDbSymbolTableRecord
100
AcDbBlockTableRecord
  2
POLY13
340
0
102
{BLKREFS
331
44F
102
}
  0
BLOCK_RECORD
  5
450
330
1
100
AcDbSymbolTableRecord
100
AcDbBlockTableRecord
  2
POLY14
340
0
102
{BLKREFS
331
459
102
}
  0
BLOCK_RECORD
  5
45A
330
1
100
AcDbSymbolTableRecord
100
AcDbBlockTableRecord
  2
POLY15
340
0
102
{BLKREFS
331
463
102
}
  0
BLOCK_RECORD
  5
464
330
1
100
AcDbSymbolTableRecord
100
AcDbBlockTableRecord
  2
POLY16
340
0
102
{BLKREFS
331
4AF
102
}
  0
BLOCK_RECORD
  5
4E9
330
1
100
AcDbSymbolTableRecord
100
AcDbBlockTableRecord
  2
LCDIM8
340
0
102
{BLKREFS
331
502
102
}
  0
BLOCK_RECORD
  5
503
330
1
100
AcDbSymbolTableRecord
100
AcDbBlockTableRecord
  2
LCDIM9
340
0
102
{BLKREFS
331
51C
102
}
  0
BLOCK_RECORD
  5
51D
330
1
100
AcDbSymbolTableRecord
100
AcDbBlockTableRecord
  2
LCDIM10
340
0
102
{BLKREFS
331
52B
102
}
  0
BLOCK_RECORD
  5
530
330
1
100
AcDbSymbolTableRecord
100
AcDbBlockTableRecord
  2
LCDIM11
340
0
102
{BLKREFS
331
549
102
}
  0
ENDTAB
  0
ENDSEC
  0
SECTION
  2
BLOCKS
  0
BLOCK
  5
20
330
1F
100
AcDbEntity
  8
0
100
AcDbBlockBegin
  2
*Model_Space
 70
     0
 71
     0
 10
0.0
 20
0.0
 30
0.0
  3
*Model_Space
  1

  0
ENDBLK
  5
21
330
1F
100
AcDbEntity
  8
0
100
AcDbBlockEnd
  0
BLOCK
  5
1C
330
1B
100
AcDbEntity
 67
     1
  8
0
100
AcDbBlockBegin
  2
*Paper_Space
 70
     0
 71
     0
 10
0.0
 20
0.0
 30
0.0
  3
*Paper_Space
  1

  0
ENDBLK
  5
1D
330
1B
100
AcDbEntity
 67
     1
  8
0
100
AcDbBlockEnd
  0
BLOCK
  5
24
330
23
100
AcDbEntity
  8
0
100
AcDbBlockBegin
  2
*Paper_Space0
 70
     0
 71
     0
 10
0.0
 20
0.0
 30
0.0
  3
*Paper_Space0
  1

  0
ENDBLK
  5
25
330
23
100
AcDbEntity
  8
0
100
AcDbBlockEnd
  0
BLOCK
  5
31
330
30
100
AcDbEntity
  8
0
100
AcDbBlockBegin
  2
SYM1
 70
     0
 71
     0
 10
0.0
 20
0.0
 30
0.0
  3
SYM1
  1

  4
SYM1
  0
LINE
  5
34
330
30
100
AcDbEntity
  8
LC-001-111-----0
 62
   253
370
    50
100
AcDbLine
 10
2050.0
 20
50.0
 30
0.0
 11
2050.0
 21
2920.0
 31
0.0
  0
LINE
  5
35
330
30
100
AcDbEntity
  8
LC-001-111-----0
 62
   253
370
    25
100
AcDbLine
 10
178.0
 20
220.0
 30
0.0
 11
724.0
 21
220.0
 31
0.0
  0
LINE
  5
36
330
30
100
AcDbEntity
  8
LC-001-111-----0
 62
   253
370
    35
100
AcDbLine
 10
724.0
 20
220.0
 30
0.0
 11
2050.0
 21
220.0
 31
0.0
  0
LINE
  5
37
330
30
100
AcDbEntity
  8
LC-001-111-----0
 62
   253
370
    50
100
AcDbLine
 10
178.0
 20
602.5
 30
0.0
 11
2050.0
 21
602.5
 31
0.0
  0
LINE
  5
38
330
30
100
AcDbEntity
  8
LC-001-111-----0
 62
   253
370
    25
100
AcDbLine
 10
178.0
 20
92.5
 30
0.0
 11
2050.0
 21
92.5
 31
0.0
  0
LINE
  5
39
330
30
100
AcDbEntity
  8
LC-001-111-----0
 62
   253
370
    25
100
AcDbLine
 10
178.0
 20
135.0
 30
0.0
 11
724.0
 21
135.0
 31
0.0
  0
LINE
  5
3A
330
30
100
AcDbEntity
  8
LC-001-111-----0
 62
   253
370
    25
100
AcDbLine
 10
178.0
 20
177.5
 30
0.0
 11
724.0
 21
177.5
 31
0.0
  0
LINE
  5
3B
330
30
100
AcDbEntity
  8
LC-001-111-----0
 62
   253
370
    25
100
AcDbLine
 10
178.0
 20
262.5
 30
0.0
 11
1166.0
 21
262.5
 31
0.0
  0
LINE
  5
3C
330
30
100
AcDbEntity
  8
LC-001-111-----0
 62
   253
370
    25
100
AcDbLine
 10
178.0
 20
305.0
 30
0.0
 11
1166.0
 21
305.0
 31
0.0
  0
LINE
  5
3D
330
30
100
AcDbEntity
  8
LC-001-111-----0
 62
   253
370
    25
100
AcDbLine
 10
178.0
 20
347.5
 30
0.0
 11
1166.0
 21
347.5
 31
0.0
  0
LINE
  5
3E
330
30
100
AcDbEntity
  8
LC-001-111-----0
 62
   253
370
    25
100
AcDbLine
 10
178.0
 20
390.0
 30
0.0
 11
1166.0
 21
390.0
 31
0.0
  0
LINE
  5
3F
330
30
100
AcDbEntity
  8
LC-001-111-----0
 62
   253
370
    35
100
AcDbLine
 10
178.0
 20
432.5
 30
0.0
 11
2050.0
 21
432.5
 31
0.0
  0
LINE
  5
40
330
30
100
AcDbEntity
  8
LC-001-111-----0
 62
   253
370
    25
100
AcDbLine
 10
828.0
 20
262.5
 30
0.0
 11
828.0
 21
432.5
 31
0.0
  0
LINE
  5
41
330
30
100
AcDbEntity
  8
LC-001-111-----0
 62
   253
370
    35
100
AcDbLine
 10
1920.0
 20
92.5
 30
0.0
 11
1920.0
 21
220.0
 31
0.0
  0
LINE
  5
42
330
30
100
AcDbEntity
  8
LC-001-111-----0
 62
   253
370
    25
100
AcDbLine
 10
1166.0
 20
538.75
 30
0.0
 11
2050.0
 21
538.75
 31
0.0
  0
LINE
  5
43
330
30
100
AcDbEntity
  8
LC-001-111-----0
 62
   253
370
    25
100
AcDbLine
 10
256.0
 20
50.0
 30
0.0
 11
256.0
 21
432.5
 31
0.0
  0
LINE
  5
44
330
30
100
AcDbEntity
  8
LC-001-111-----0
 62
   253
370
    25
100
AcDbLine
 10
516.0
 20
50.0
 30
0.0
 11
516.0
 21
432.5
 31
0.0
  0
LINE
  5
45
330
30
100
AcDbEntity
  8
LC-001-111-----0
 62
   253
370
    25
100
AcDbLine
 10
646.0
 20
50.0
 30
0.0
 11
646.0
 21
432.5
 31
0.0
  0
LINE
  5
46
330
30
100
AcDbEntity
  8
LC-001-111-----0
 62
   253
370
    35
100
AcDbLine
 10
724.0
 20
50.0
 30
0.0
 11
724.0
 21
602.5
 31
0.0
  0
LINE
  5
47
330
30
100
AcDbEntity
  8
LC-001-111-----0
 62
   253
370
    35
100
AcDbLine
 10
1166.0
 20
50.0
 30
0.0
 11
1166.0
 21
602.5
 31
0.0
  0
LINE
  5
48
330
30
100
AcDbEntity
  8
LC-001-111-----0
 62
   253
370
    25
100
AcDbLine
 10
1920.0
 20
135.0
 30
0.0
 11
2050.0
 21
135.0
 31
0.0
  0
LINE
  5
49
330
30
100
AcDbEntity
  8
LC-001-111-----0
 62
   253
370
    25
100
AcDbLine
 10
984.0
 20
220.0
 30
0.0
 11
984.0
 21
602.5
 31
0.0
  0
LINE
  5
4A
330
30
100
AcDbEntity
  8
LC-001-111-----0
 62
   253
370
    25
100
AcDbLine
 10
1686.0
 20
538.75
 30
0.0
 11
1686.0
 21
602.5
 31
0.0
  0
LINE
  5
4B
330
30
100
AcDbEntity
  8
LC-001-111-----0
 62
   253
370
    25
100
AcDbLine
 10
1608.0
 20
50.0
 30
0.0
 11
1608.0
 21
92.5
 31
0.0
  0
LINE
  5
4C
330
30
100
AcDbEntity
  8
LC-001-111-----0
 62
   253
370
    50
100
AcDbLine
 10
178.0
 20
50.0
 30
0.0
 11
178.0
 21
2920.0
 31
0.0
  0
LINE
  5
4D
330
30
100
AcDbEntity
  8
LC-001-111-----0
 62
   253
370
    50
100
AcDbLine
 10
178.0
 20
2920.0
 30
0.0
 11
2050.0
 21
2920.0
 31
0.0
  0
TEXT
  5
4E
330
30
100
AcDbEntity
  8
LC-001-111-----0
 62
     7
370
    25
100
AcDbText
 10
1471.410714
 20
558.125
 30
0.0
 40
25.0
  1
1:10
 41
0.75
  7
LCTX0-400-0-0pDIN-Schrift
 72
     1
 11
1504.0
 21
558.125
 31
0.0
100
AcDbText
  0
TEXT
  5
4F
330
30
100
AcDbEntity
  8
LC-001-111-----0
 62
     7
370
    25
100
AcDbText
 10
740.285714
 20
398.75
 30
0.0
 40
25.0
  1
2007
 41
0.75
  7
LCTX0-400-0-0pDIN-Schrift
 72
     1
 11
776.0
 21
398.75
 31
0.0
100
AcDbText
  0
TEXT
  5
50
330
30
100
AcDbEntity
  8
LC-001-111-----0
 62
     7
370
    25
100
AcDbText
 10
861.803571
 20
356.25
 30
0.0
 40
25.0
  1
21.08.
 41
0.75
  7
LCTX0-400-0-0pDIN-Schrift
 72
     1
 11
906.0
 21
356.25
 31
0.0
100
AcDbText
  0
TEXT
  5
51
330
30
100
AcDbEntity
  8
LC-001-111-----0
 62
     7
370
    25
100
AcDbText
 10
1056.696429
 20
356.25
 30
0.0
 40
25.0
  1
HÄ
 41
0.75
  7
LCTX0-400-0-0pDIN-Schrift
 72
     1
 11
1075.0
 21
356.25
 31
0.0
100
AcDbText
  0
TEXT
  5
52
330
30
100
AcDbEntity
  8
LC-001-111-----0
 62
   253
370
    20
100
AcDbText
 10
1183.923077
 20
560.625
 30
0.0
 40
20.0
  1
Maßstab
 41
0.75
  7
LCTX0-400-0-0pDIN-Schrift
100
AcDbText
  0
TEXT
  5
53
330
30
100
AcDbEntity
  8
LC-001-111-----0
 62
   253
370
    20
100
AcDbText
 10
869.928571
 20
401.25
 30
0.0
 40
20.0
  1
Datum
 41
0.75
  7
LCTX0-400-0-0pDIN-Schrift
 72
     1
 11
906.0
 21
401.25
 31
0.0
100
AcDbText
  0
TEXT
  5
54
330
30
100
AcDbEntity
  8
LC-001-111-----0
 62
   253
370
    20
100
AcDbText
 10
1042.857143
 20
401.25
 30
0.0
 40
20.0
  1
Name
 41
0.75
  7
LCTX0-400-0-0pDIN-Schrift
 72
     1
 11
1075.0
 21
401.25
 31
0.0
100
AcDbText
  0
TEXT
  5
55
330
30
100
AcDbEntity
  8
LC-001-111-----0
 62
   253
370
    20
100
AcDbText
 10
741.923077
 20
358.75
 30
0.0
 40
20.0
  1
Bearb.
 41
0.75
  7
LCTX0-400-0-0pDIN-Schrift
100
AcDbText
  0
TEXT
  5
56
330
30
100
AcDbEntity
  8
LC-001-111-----0
 62
   253
370
    20
100
AcDbText
 10
741.923077
 20
316.25
 30
0.0
 40
20.0
  1
Gepr.
 41
0.75
  7
LCTX0-400-0-0pDIN-Schrift
100
AcDbText
  0
TEXT
  5
57
330
30
100
AcDbEntity
  8
LC-001-111-----0
 62
   253
370
    20
100
AcDbText
 10
741.923077
 20
273.75
 30
0.0
 40
20.0
  1
Norm
 41
0.75
  7
LCTX0-400-0-0pDIN-Schrift
100
AcDbText
  0
TEXT
  5
58
330
30
100
AcDbEntity
  8
LC-001-111-----0
 62
   253
370
    20
100
AcDbText
 10
1937.923077
 20
188.75
 30
0.0
 40
20.0
  1
Blatt
 41
0.75
  7
LCTX0-400-0-0pDIN-Schrift
100
AcDbText
  0
TEXT
  5
59
330
30
100
AcDbEntity
  8
LC-001-111-----0
 62
   253
370
    20
100
AcDbText
 10
2012.076923
 20
103.75
 30
0.0
 40
20.0
  1
Bl.
 41
0.75
  7
LCTX0-400-0-0pDIN-Schrift
 72
     2
 11
2037.076923
 21
103.75
 31
0.0
100
AcDbText
  0
TEXT
  5
5A
330
30
100
AcDbEntity
  8
LC-001-111-----0
 62
   253
370
    20
100
AcDbText
 10
200.0
 20
61.25
 30
0.0
 40
20.0
  1
Zust.
 41
0.6
  7
LCTX0-400-0-0pDIN-Schrift
 72
     1
 11
222.0
 21
61.25
 31
0.0
100
AcDbText
  0
TEXT
  5
5B
330
30
100
AcDbEntity
  8
LC-001-111-----0
 62
   253
370
    20
100
AcDbText
 10
334.928571
 20
61.25
 30
0.0
 40
20.0
  1
Änderung
 41
0.75
  7
LCTX0-400-0-0pDIN-Schrift
 72
     1
 11
386.0
 21
61.25
 31
0.0
100
AcDbText
  0
TEXT
  5
5C
330
30
100
AcDbEntity
  8
LC-001-111-----0
 62
   253
370
    20
100
AcDbText
 10
544.928571
 20
61.25
 30
0.0
 40
20.0
  1
Datum
 41
0.75
  7
LCTX0-400-0-0pDIN-Schrift
 72
     1
 11
581.0
 21
61.25
 31
0.0
100
AcDbText
  0
TEXT
  5
5D
330
30
100
AcDbEntity
  8
LC-001-111-----0
 62
   253
370
    20
100
AcDbText
 10
652.857143
 20
61.25
 30
0.0
 40
20.0
  1
Name
 41
0.75
  7
LCTX0-400-0-0pDIN-Schrift
 72
     1
 11
685.0
 21
61.25
 31
0.0
100
AcDbText
  0
TEXT
  5
5E
330
30
100
AcDbEntity
  8
LC-001-111-----0
 62
     7
370
    50
100
AcDbText
 10
1409.785714
 20
343.75
 30
0.0
 40
50.0
  1
Solido N-100
 41
0.75
  7
LCTX0-400-0-0pDIN-Schrift
 72
     1
 11
1608.0
 21
343.75
 31
0.0
100
AcDbText
  0
TEXT
  5
5F
330
30
100
AcDbEntity
  8
LC-001-111-----0
 62
     7
370
    35
100
AcDbText
 10
1440.568746
 20
266.25
 30
0.0
 40
35.0
  1
Nur für Unterbau !
 41
0.75
  7
LCTX0-400-0-0pDIN-Schrift
100
AcDbText
  0
TEXT
  5
60
330
30
100
AcDbEntity
  8
LC-001-111-----0
 62
     7
370
    50
100
AcDbText
 10
1328.714286
 20
131.25
 30
0.0
 40
50.0
  1
4.07.510.04.00
 41
0.75
  7
LCTX0-400-0-0pDIN-Schrift
 72
     1
 11
1543.0
 21
131.25
 31
0.0
100
AcDbText
  0
ARC
  5
61
330
30
100
AcDbEntity
  8
LC-001-111-----0
 62
   253
370
    25
100
AcDbCircle
 10
758.903191
 20
174.567744
 30
0.0
 40
20.81533311668208
100
AcDbArc
 50
62.408264
 51
94.48185
  0
LINE
  5
62
330
30
100
AcDbEntity
  8
LC-001-111-----0
 62
   253
370
    50
100
AcDbLine
 10
178.0
 20
50.0
 30
0.0
 11
2050.0
 21
50.0
 31
0.0
  0
LINE
  5
63
330
30
100
AcDbEntity
  8
LC-001-111-----0
 62
   253
370
    25
100
AcDbLine
 10
50.0
 20
1485.0
 30
0.0
 11
0.0
 21
1485.0
 31
0.0
  0
LINE
  5
64
330
30
100
AcDbEntity
  8
LC-001-111-----0
 62
   253
370
    25
100
AcDbLine
 10
1063.835603
 20
195.169147
 30
0.0
 11
1063.835603
 21
157.149147
 31
0.0
  0
LINE
  5
65
330
30
100
AcDbEntity
  8
LC-001-111-----0
 62
   253
370
    25
100
AcDbLine
 10
2100.0
 20
2970.0
 30
0.0
 11
2100.0
 21
0.0
 31
0.0
  0
LINE
  5
66
330
30
100
AcDbEntity
  8
LC-001-111-----0
 62
   253
370
    25
100
AcDbLine
 10
2100.0
 20
0.0
 30
0.0
 11
0.0
 21
0.0
 31
0.0
  0
LINE
  5
67
330
30
100
AcDbEntity
  8
LC-001-111-----0
 62
   253
370
    25
100
AcDbLine
 10
0.0
 20
0.0
 30
0.0
 11
0.0
 21
2970.0
 31
0.0
  0
LINE
  5
68
330
30
100
AcDbEntity
  8
LC-001-111-----0
 62
   253
370
    25
100
AcDbLine
 10
2100.0
 20
2970.0
 30
0.0
 11
0.0
 21
2970.0
 31
0.0
  0
TEXT
  5
69
330
30
100
AcDbEntity
  8
LC-001-111-----0
 62
   253
370
    20
100
AcDbText
 10
763.0
 20
111.159147
 30
0.0
 40
20.0
  1
Hofbauerstraße1 · D-94209 REGEN
 41
0.65
  7
LCTX0-400-0-0pDIN-Schrift
 72
     1
 11
945.0
 21
111.159147
 31
0.0
100
AcDbText
  0
ARC
  5
6A
330
30
100
AcDbEntity
  8
LC-001-111-----0
 62
   253
370
    25
100
AcDbCircle
 10
758.032826
 20
185.671748
 30
0.0
 40
9.677270814709853
100
AcDbArc
 50
94.48185
 51
252.731329
  0
ARC
  5
6B
330
30
100
AcDbEntity
  8
LC-001-111-----0
 62
   253
370
    25
100
AcDbCircle
 10
823.845603
 20
176.159147
 30
0.0
 40
19.01000000000008
100
AcDbArc
 50
74.719456
 51
285.280544
  0
LINE
  5
6C
330
30
100
AcDbEntity
  8
LC-001-111-----0
 62
   253
370
    25
100
AcDbLine
 10
828.855603
 20
157.821208
 30
0.0
 11
828.855603
 21
163.204148
 31
0.0
  0
ARC
  5
6D
330
30
100
AcDbEntity
  8
LC-001-111-----0
 62
   253
370
    25
100
AcDbCircle
 10
823.845603
 20
176.159147
 30
0.0
 40
13.88999999999995
100
AcDbArc
 50
68.857352
 51
291.142648
  0
ARC
  5
6E
330
30
100
AcDbEntity
  8
LC-001-111-----0
 62
   253
370
    25
100
AcDbCircle
 10
823.845603
 20
176.159147
 30
0.0
 40
12.39000000000002
100
AcDbArc
 50
58.303227
 51
301.696773
  0
ARC
  5
6F
330
30
100
AcDbEntity
  8
LC-001-111-----0
 62
   253
370
    25
100
AcDbCircle
 10
1019.845603
 20
176.159147
 30
0.0
 40
19.01000000000008
100
AcDbArc
 50
74.719456
 51
285.280544
  0
LINE
  5
70
330
30
100
AcDbEntity
  8
LC-001-111-----0
 62
   253
370
    25
100
AcDbLine
 10
830.355603
 20
165.617231
 30
0.0
 11
830.355603
 21
156.709726
 31
0.0
  0
LINE
  5
71
330
30
100
AcDbEntity
  8
LC-001-111-----0
 62
   253
370
    25
100
AcDbLine
 10
755.160101
 20
176.430697
 30
0.0
 11
762.683613
 21
174.091896
 31
0.0
  0
ARC
  5
72
330
30
100
AcDbEntity
  8
LC-001-111-----0
 62
   253
370
    25
100
AcDbCircle
 10
823.845603
 20
176.159147
 30
0.0
 40
20.51000000000012
100
AcDbArc
 50
71.493868
 51
288.506132
  0
LINE
  5
73
330
30
100
AcDbEntity
  8
LC-001-111-----0
 62
   253
370
    25
100
AcDbLine
 10
1024.855603
 20
157.821208
 30
0.0
 11
1024.855603
 21
163.204148
 31
0.0
  0
LINE
  5
74
330
30
100
AcDbEntity
  8
LC-001-111-----0
 62
   253
370
    25
100
AcDbLine
 10
830.355603
 20
195.608569
 30
0.0
 11
830.355603
 21
186.701063
 31
0.0
  0
ARC
  5
75
330
30
100
AcDbEntity
  8
LC-001-111-----0
 62
   253
370
    25
100
AcDbCircle
 10
1019.845603
 20
176.159147
 30
0.0
 40
13.88999999999995
100
AcDbArc
 50
68.857352
 51
291.142648
  0
LINE
  5
76
330
30
100
AcDbEntity
  8
LC-001-111-----0
 62
   253
370
    25
100
AcDbLine
 10
862.835603
 20
155.649147
 30
0.0
 11
862.835603
 21
196.669147
 31
0.0
  0
LINE
  5
77
330
30
100
AcDbEntity
  8
LC-001-111-----0
 62
   253
370
    25
100
AcDbLine
 10
862.835603
 20
196.669147
 30
0.0
 11
872.355603
 21
196.669147
 31
0.0
  0
LINE
  5
78
330
30
100
AcDbEntity
  8
LC-001-111-----0
 62
   253
370
    25
100
AcDbLine
 10
872.355603
 20
196.669147
 30
0.0
 11
872.355603
 21
179.519147
 31
0.0
  0
LINE
  5
79
330
30
100
AcDbEntity
  8
LC-001-111-----0
 62
   253
370
    25
100
AcDbLine
 10
872.355603
 20
179.519147
 30
0.0
 11
887.335603
 21
179.519147
 31
0.0
  0
LINE
  5
7A
330
30
100
AcDbEntity
  8
LC-001-111-----0
 62
   253
370
    25
100
AcDbLine
 10
887.335603
 20
179.519147
 30
0.0
 11
887.335603
 21
196.669147
 31
0.0
  0
LINE
  5
7B
330
30
100
AcDbEntity
  8
LC-001-111-----0
 62
   253
370
    25
100
AcDbLine
 10
887.335603
 20
196.669147
 30
0.0
 11
896.855603
 21
196.669147
 31
0.0
  0
LINE
  5
7C
330
30
100
AcDbEntity
  8
LC-001-111-----0
 62
   253
370
    25
100
AcDbLine
 10
896.855603
 20
196.669147
 30
0.0
 11
896.855603
 21
155.649147
 31
0.0
  0
LINE
  5
7D
330
30
100
AcDbEntity
  8
LC-001-111-----0
 62
   253
370
    25
100
AcDbLine
 10
896.855603
 20
155.649147
 30
0.0
 11
887.335603
 21
155.649147
 31
0.0
  0
LINE
  5
7E
330
30
100
AcDbEntity
  8
LC-001-111-----0
 62
   253
370
    25
100
AcDbLine
 10
887.335603
 20
155.649147
 30
0.0
 11
887.335603
 21
172.799147
 31
0.0
  0
LINE
  5
7F
330
30
100
AcDbEntity
  8
LC-001-111-----0
 62
   253
370
    25
100
AcDbLine
 10
887.335603
 20
172.799147
 30
0.0
 11
872.355603
 21
172.799147
 31
0.0
  0
LINE
  5
80
330
30
100
AcDbEntity
  8
LC-001-111-----0
 62
   253
370
    25
100
AcDbLine
 10
872.355603
 20
172.799147
 30
0.0
 11
872.355603
 21
155.649147
 31
0.0
  0
LINE
  5
81
330
30
100
AcDbEntity
  8
LC-001-111-----0
 62
   253
370
    25
100
AcDbLine
 10
872.355603
 20
155.649147
 30
0.0
 11
862.835603
 21
155.649147
 31
0.0
  0
CIRCLE
  5
82
330
30
100
AcDbEntity
  8
LC-001-111-----0
 62
   253
370
    25
100
AcDbCircle
 10
946.345603
 20
176.159147
 30
0.0
 40
12.39000000000044
  0
CIRCLE
  5
83
330
30
100
AcDbEntity
  8
LC-001-111-----0
 62
   253
370
    25
100
AcDbCircle
 10
946.345603
 20
176.159147
 30
0.0
 40
20.51000000000049
  0
ARC
  5
84
330
30
100
AcDbEntity
  8
LC-001-111-----0
 62
   253
370
    25
100
AcDbCircle
 10
1019.845603
 20
176.159147
 30
0.0
 40
12.39000000000002
100
AcDbArc
 50
58.303227
 51
301.696773
  0
LINE
  5
85
330
30
100
AcDbEntity
  8
LC-001-111-----0
 62
   253
370
    25
100
AcDbLine
 10
864.335603
 20
195.169147
 30
0.0
 11
864.335603
 21
157.149147
 31
0.0
  0
LINE
  5
86
330
30
100
AcDbEntity
  8
LC-001-111-----0
 62
   253
370
    25
100
AcDbLine
 10
1026.355603
 20
165.617231
 30
0.0
 11
1026.355603
 21
156.709726
 31
0.0
  0
LINE
  5
87
330
30
100
AcDbEntity
  8
LC-001-111-----0
 62
   253
370
    25
100
AcDbLine
 10
864.335603
 20
157.149147
 30
0.0
 11
870.855603
 21
157.149147
 31
0.0
  0
LINE
  5
88
330
30
100
AcDbEntity
  8
LC-001-111-----0
 62
   253
370
    25
100
AcDbLine
 10
870.855603
 20
157.149147
 30
0.0
 11
870.855603
 21
174.299147
 31
0.0
  0
LINE
  5
89
330
30
100
AcDbEntity
  8
LC-001-111-----0
 62
   253
370
    25
100
AcDbLine
 10
870.855603
 20
174.299147
 30
0.0
 11
888.835603
 21
174.299147
 31
0.0
  0
LINE
  5
8A
330
30
100
AcDbEntity
  8
LC-001-111-----0
 62
   253
370
    25
100
AcDbLine
 10
888.835603
 20
174.299147
 30
0.0
 11
888.835603
 21
157.149147
 31
0.0
  0
LINE
  5
8B
330
30
100
AcDbEntity
  8
LC-001-111-----0
 62
   253
370
    25
100
AcDbLine
 10
888.835603
 20
157.149147
 30
0.0
 11
895.355603
 21
157.149147
 31
0.0
  0
LINE
  5
8C
330
30
100
AcDbEntity
  8
LC-001-111-----0
 62
   253
370
    25
100
AcDbLine
 10
895.355603
 20
157.149147
 30
0.0
 11
895.355603
 21
195.169147
 31
0.0
  0
LINE
  5
8D
330
30
100
AcDbEntity
  8
LC-001-111-----0
 62
   253
370
    25
100
AcDbLine
 10
895.355603
 20
195.169147
 30
0.0
 11
888.835603
 21
195.169147
 31
0.0
  0
LINE
  5
8E
330
30
100
AcDbEntity
  8
LC-001-111-----0
 62
   253
370
    25
100
AcDbLine
 10
888.835603
 20
195.169147
 30
0.0
 11
888.835603
 21
178.019147
 31
0.0
  0
LINE
  5
8F
330
30
100
AcDbEntity
  8
LC-001-111-----0
 62
   253
370
    25
100
AcDbLine
 10
888.835603
 20
178.019147
 30
0.0
 11
870.855603
 21
178.019147
 31
0.0
  0
LINE
  5
90
330
30
100
AcDbEntity
  8
LC-001-111-----0
 62
   253
370
    25
100
AcDbLine
 10
870.855603
 20
178.019147
 30
0.0
 11
870.855603
 21
195.169147
 31
0.0
  0
CIRCLE
  5
91
330
30
100
AcDbEntity
  8
LC-001-111-----0
 62
   253
370
    25
100
AcDbCircle
 10
946.345603
 20
176.159147
 30
0.0
 40
19.01000000000055
  0
ARC
  5
92
330
30
100
AcDbEntity
  8
LC-001-111-----0
 62
   253
370
    25
100
AcDbCircle
 10
760.836588
 20
168.15034
 30
0.0
 40
6.222024781007809
100
AcDbArc
 50
268.246912
 51
72.731329
  0
ARC
  5
93
330
30
100
AcDbEntity
  8
LC-001-111-----0
 62
   253
370
    25
100
AcDbCircle
 10
761.412387
 20
186.963179
 30
0.0
 40
25.04367341134793
100
AcDbArc
 50
239.19233
 51
268.246912
  0
LINE
  5
94
330
30
100
AcDbEntity
  8
LC-001-111-----0
 62
   253
370
    25
100
AcDbLine
 10
748.586073
 20
165.453385
 30
0.0
 11
748.586073
 21
160.350534
 31
0.0
  0
ARC
  5
95
330
30
100
AcDbEntity
  8
LC-001-111-----0
 62
   253
370
    25
100
AcDbCircle
 10
760.81067
 20
180.45076
 30
0.0
 40
23.52572762426598
100
AcDbArc
 50
238.692783
 51
274.343327
  0
ARC
  5
96
330
30
100
AcDbEntity
  8
LC-001-111-----0
 62
   253
370
    25
100
AcDbCircle
 10
1019.845603
 20
176.159147
 30
0.0
 40
20.51000000000012
100
AcDbArc
 50
71.493868
 51
288.506132
  0
ARC
  5
97
330
30
100
AcDbEntity
  8
LC-001-111-----0
 62
   253
370
    25
100
AcDbCircle
 10
761.779647
 20
167.692822
 30
0.0
 40
10.73104525444839
100
AcDbArc
 50
274.343327
 51
74.255463
  0
LINE
  5
98
330
30
100
AcDbEntity
  8
LC-001-111-----0
 62
   253
370
    25
100
AcDbLine
 10
1026.355603
 20
195.608569
 30
0.0
 11
1026.355603
 21
186.701063
 31
0.0
  0
LINE
  5
99
330
30
100
AcDbEntity
  8
LC-001-111-----0
 62
   253
370
    25
100
AcDbLine
 10
764.691502
 20
178.02125
 30
0.0
 11
757.135251
 21
180.151556
 31
0.0
  0
LINE
  5
9A
330
30
100
AcDbEntity
  8
LC-001-111-----0
 62
   253
370
    25
100
AcDbLine
 10
1024.855603
 20
189.114146
 30
0.0
 11
1024.855603
 21
194.497086
 31
0.0
  0
ARC
  5
9B
330
30
100
AcDbEntity
  8
LC-001-111-----0
 62
   253
370
    25
100
AcDbCircle
 10
758.632108
 20
185.460948
 30
0.0
 40
5.51636013010035
100
AcDbArc
 50
90.951212
 51
254.255463
  0
ARC
  5
9C
330
30
100
AcDbEntity
  8
LC-001-111-----0
 62
   253
370
    25
100
AcDbCircle
 10
758.906662
 20
168.924866
 30
0.0
 40
22.05472179307849
100
AcDbArc
 50
64.088485
 51
90.951212
  0
LINE
  5
9D
330
30
100
AcDbEntity
  8
LC-001-111-----0
 62
   253
370
    25
100
AcDbLine
 10
768.544191
 20
188.762426
 30
0.0
 11
768.544191
 21
193.015758
 31
0.0
  0
LINE
  5
9E
330
30
100
AcDbEntity
  8
LC-001-111-----0
 62
   253
370
    25
100
AcDbLine
 10
1071.855603
 20
177.513832
 30
0.0
 11
1087.818366
 21
196.669147
 31
0.0
  0
LINE
  5
9F
330
30
100
AcDbEntity
  8
LC-001-111-----0
 62
   253
370
    25
100
AcDbLine
 10
1087.818366
 20
196.669147
 30
0.0
 11
1099.299433
 21
196.669147
 31
0.0
  0
LINE
  5
A0
330
30
100
AcDbEntity
  8
LC-001-111-----0
 62
   253
370
    25
100
AcDbLine
 10
1099.299433
 20
196.669147
 30
0.0
 11
1082.207766
 21
176.159147
 31
0.0
  0
LINE
  5
A2
330
30
100
AcDbEntity
  8
LC-002-002-----0
 62
     1
370
    25
100
AcDbLine
 10
1143.855603
 20
159.963432
 30
0.0
 11
1143.855603
 21
192.354862
 31
0.0
  0
LINE
  5
A3
330
30
100
AcDbEntity
  8
LC-002-002-----0
 62
     1
370
    25
100
AcDbLine
 10
1143.855603
 20
192.354862
 30
0.0
 11
1127.659888
 21
176.159147
 31
0.0
  0
LINE
  5
A4
330
30
100
AcDbEntity
  8
LC-002-002-----0
 62
     1
370
    25
100
AcDbLine
 10
1127.659888
 20
176.159147
 30
0.0
 11
1143.855603
 21
159.963432
 31
0.0
  0
LINE
  5
A5
330
30
100
AcDbEntity
  8
LC-002-002-----0
 62
     1
370
    25
100
AcDbLine
 10
1142.355603
 20
163.584752
 30
0.0
 11
1142.355603
 21
188.733542
 31
0.0
  0
LINE
  5
A6
330
30
100
AcDbEntity
  8
LC-001-111-----0
 62
   253
370
    25
100
AcDbLine
 10
1082.207766
 20
176.159147
 30
0.0
 11
1099.299433
 21
155.649147
 31
0.0
  0
LINE
  5
A7
330
30
100
AcDbEntity
  8
LC-001-111-----0
 62
   253
370
    25
100
AcDbLine
 10
1099.299433
 20
155.649147
 30
0.0
 11
1087.818366
 21
155.649147
 31
0.0
  0
LINE
  5
A8
330
30
100
AcDbEntity
  8
LC-001-111-----0
 62
   253
370
    25
100
AcDbLine
 10
1087.818366
 20
155.649147
 30
0.0
 11
1071.855603
 21
174.804462
 31
0.0
  0
LINE
  5
A9
330
30
100
AcDbEntity
  8
LC-001-111-----0
 62
   253
370
    25
100
AcDbLine
 10
1062.335603
 20
155.649147
 30
0.0
 11
1062.335603
 21
196.669147
 31
0.0
  0
LINE
  5
AA
330
30
100
AcDbEntity
  8
LC-001-111-----0
 62
   253
370
    25
100
AcDbLine
 10
828.855603
 20
189.114146
 30
0.0
 11
828.855603
 21
194.497086
 31
0.0
  0
ARC
  5
AB
330
30
100
AcDbEntity
  8
LC-001-111-----0
 62
   253
370
    25
100
AcDbCircle
 10
758.903191
 20
174.567744
 30
0.0
 40
19.31533311668209
100
AcDbArc
 50
65.072024
 51
94.48185
  0
LINE
  5
AC
330
30
100
AcDbEntity
  8
LC-001-111-----0
 62
   253
370
    25
100
AcDbLine
 10
1063.835603
 20
157.149147
 30
0.0
 11
1070.355603
 21
157.149147
 31
0.0
  0
LINE
  5
AD
330
30
100
AcDbEntity
  8
LC-001-111-----0
 62
   253
370
    25
100
AcDbLine
 10
1070.355603
 20
157.149147
 30
0.0
 11
1070.355603
 21
195.169147
 31
0.0
  0
LINE
  5
AE
330
30
100
AcDbEntity
  8
LC-001-111-----0
 62
   253
370
    25
100
AcDbLine
 10
1070.355603
 20
195.169147
 30
0.0
 11
1063.835603
 21
195.169147
 31
0.0
  0
LINE
  5
AF
330
30
100
AcDbEntity
  8
LC-001-111-----0
 62
   253
370
    25
100
AcDbLine
 10
1065.335603
 20
193.669147
 30
0.0
 11
1065.335603
 21
158.649147
 31
0.0
  0
LINE
  5
B0
330
30
100
AcDbEntity
  8
LC-002-002-----0
 62
     1
370
    25
100
AcDbLine
 10
1142.355603
 20
188.733542
 30
0.0
 11
1129.781208
 21
176.159147
 31
0.0
  0
LINE
  5
B1
330
30
100
AcDbEntity
  8
LC-002-002-----0
 62
     1
370
    25
100
AcDbLine
 10
1129.781208
 20
176.159147
 30
0.0
 11
1142.355603
 21
163.584752
 31
0.0
  0
LINE
  5
B2
330
30
100
AcDbEntity
  8
LC-001-111-----0
 62
   253
370
    25
100
AcDbLine
 10
1062.335603
 20
196.669147
 30
0.0
 11
1071.855603
 21
196.669147
 31
0.0
  0
LINE
  5
B3
330
30
100
AcDbEntity
  8
LC-001-111-----0
 62
   253
370
    25
100
AcDbLine
 10
1071.855603
 20
196.669147
 30
0.0
 11
1071.855603
 21
155.649147
 31
0.0
  0
LINE
  5
B4
330
30
100
AcDbEntity
  8
LC-001-111-----0
 62
   253
370
    25
100
AcDbLine
 10
1071.855603
 20
155.649147
 30
0.0
 11
1062.335603
 21
155.649147
 31
0.0
  0
ARC
  5
B5
330
30
100
AcDbEntity
  8
LC-001-111-----0
 62
   253
370
    25
100
AcDbCircle
 10
758.032826
 20
185.671748
 30
0.0
 40
8.177270814709827
100
AcDbArc
 50
94.48185
 51
252.731329
  0
LINE
  5
B6
330
30
100
AcDbEntity
  8
LC-001-111-----0
 62
   253
370
    25
100
AcDbLine
 10
755.60538
 20
177.863082
 30
0.0
 11
763.128892
 21
175.524281
 31
0.0
  0
ARC
  5
B7
330
30
100
AcDbEntity
  8
LC-001-111-----0
 62
   253
370
    25
100
AcDbCircle
 10
760.836588
 20
168.15034
 30
0.0
 40
7.72202478100773
100
AcDbArc
 50
268.246912
 51
72.731329
  0
LINE
  5
B8
330
30
100
AcDbEntity
  8
LC-001-111-----0
 62
   253
370
    25
100
AcDbLine
 10
827.355603
 20
191.143539
 30
0.0
 11
827.355603
 21
193.313738
 31
0.0
  0
ARC
  5
B9
330
30
100
AcDbEntity
  8
LC-001-111-----0
 62
   253
370
    25
100
AcDbCircle
 10
823.845603
 20
176.159147
 30
0.0
 40
17.50999999999996
100
AcDbArc
 50
78.436322
 51
281.563678
  0
LINE
  5
BA
330
30
100
AcDbEntity
  8
LC-001-111-----0
 62
   253
370
    25
100
AcDbLine
 10
827.355603
 20
159.004556
 30
0.0
 11
827.355603
 21
161.174755
 31
0.0
  0
LINE
  5
BB
330
30
100
AcDbEntity
  8
LC-002-002-----0
 62
     1
370
    25
100
AcDbLine
 10
1145.355603
 20
195.976182
 30
0.0
 11
1145.355603
 21
156.342112
 31
0.0
  0
LINE
  5
BC
330
30
100
AcDbEntity
  8
LC-002-002-----0
 62
     1
370
    25
100
AcDbLine
 10
1145.355603
 20
156.342112
 30
0.0
 11
1125.538568
 21
176.159147
 31
0.0
  0
LINE
  5
BD
330
30
100
AcDbEntity
  8
LC-002-002-----0
 62
     1
370
    25
100
AcDbLine
 10
1125.538568
 20
176.159147
 30
0.0
 11
1145.355603
 21
195.976182
 31
0.0
  0
LINE
  5
BE
330
30
100
AcDbEntity
  8
LC-001-111-----0
 62
   253
370
    25
100
AcDbLine
 10
1065.335603
 20
158.649147
 30
0.0
 11
1068.855603
 21
158.649147
 31
0.0
  0
LINE
  5
BF
330
30
100
AcDbEntity
  8
LC-001-111-----0
 62
   253
370
    25
100
AcDbLine
 10
1068.855603
 20
158.649147
 30
0.0
 11
1068.855603
 21
193.669147
 31
0.0
  0
LINE
  5
C0
330
30
100
AcDbEntity
  8
LC-001-111-----0
 62
   253
370
    25
100
AcDbLine
 10
1068.855603
 20
193.669147
 30
0.0
 11
1065.335603
 21
193.669147
 31
0.0
  0
LINE
  5
C1
330
30
100
AcDbEntity
  8
LC-001-111-----0
 62
   253
370
    25
100
AcDbLine
 10
1067.095603
 20
192.169147
 30
0.0
 11
1067.095603
 21
160.149147
 31
0.0
  0
ARC
  5
C2
330
30
100
AcDbEntity
  8
LC-001-111-----0
 62
   253
370
    25
100
AcDbCircle
 10
823.845603
 20
176.159147
 30
0.0
 40
15.38999999999992
100
AcDbArc
 50
76.816519
 51
283.183481
  0
LINE
  5
C3
330
30
100
AcDbEntity
  8
LC-001-111-----0
 62
   253
370
    25
100
AcDbLine
 10
870.855603
 20
195.169147
 30
0.0
 11
864.335603
 21
195.169147
 31
0.0
  0
LINE
  5
C4
330
30
100
AcDbEntity
  8
LC-001-111-----0
 62
   253
370
    25
100
AcDbLine
 10
1096.09687
 20
195.169147
 30
0.0
 11
1088.520928
 21
195.169147
 31
0.0
  0
LINE
  5
C5
330
30
100
AcDbEntity
  8
LC-001-111-----0
 62
   253
370
    25
100
AcDbLine
 10
865.835603
 20
158.649147
 30
0.0
 11
869.355603
 21
158.649147
 31
0.0
  0
LINE
  5
C6
330
30
100
AcDbEntity
  8
LC-001-111-----0
 62
   253
370
    25
100
AcDbLine
 10
1023.355603
 20
191.143539
 30
0.0
 11
1023.355603
 21
193.313738
 31
0.0
  0
LINE
  5
C7
330
30
100
AcDbEntity
  8
LC-001-111-----0
 62
   253
370
    25
100
AcDbLine
 10
892.095603
 20
192.169147
 30
0.0
 11
892.095603
 21
160.149147
 31
0.0
  0
TEXT
  5
C8
330
30
100
AcDbEntity
  8
LC-001-111-----0
 62
     1
370
    15
100
AcDbText
 10
1904.160714
 20
21.25
 30
0.0
 40
15.0
  1
Solido-N100
 41
0.75
  7
LCTX0-400-0-0pDIN-Schrift
 72
     1
 11
1958.0
 21
21.25
 31
0.0
100
AcDbText
  0
CIRCLE
  5
C9
330
30
100
AcDbEntity
  8
LC-001-111-----0
 62
   253
370
    25
100
AcDbCircle
 10
946.345603
 20
176.159147
 30
0.0
 40
17.51000000000047
  0
LINE
  5
CA
330
30
100
AcDbEntity
  8
LC-001-111-----0
 62
   253
370
    25
100
AcDbLine
 10
1088.520928
 20
195.169147
 30
0.0
 11
1072.679261
 21
176.159147
 31
0.0
  0
ARC
  5
CB
330
30
100
AcDbEntity
  8
LC-001-111-----0
 62
   253
370
    25
100
AcDbCircle
 10
1019.845603
 20
176.159147
 30
0.0
 40
17.50999999999996
100
AcDbArc
 50
78.436322
 51
281.563678
  0
ARC
  5
CC
330
30
100
AcDbEntity
  8
LC-001-111-----0
 62
   253
370
    25
100
AcDbCircle
 10
761.412387
 20
186.963179
 30
0.0
 40
26.54367341134783
100
AcDbArc
 50
244.741378
 51
268.246912
  0
LINE
  5
CD
330
30
100
AcDbEntity
  8
LC-001-111-----0
 62
   253
370
    25
100
AcDbLine
 10
1023.355603
 20
159.004556
 30
0.0
 11
1023.355603
 21
161.174755
 31
0.0
  0
LINE
  5
CE
330
30
100
AcDbEntity
  8
LC-002-002-----0
 62
     1
370
    25
100
AcDbLine
 10
1140.855603
 20
167.206073
 30
0.0
 11
1140.855603
 21
185.112221
 31
0.0
  0
LINE
  5
CF
330
30
100
AcDbEntity
  8
LC-002-002-----0
 62
     1
370
    25
100
AcDbLine
 10
1140.855603
 20
185.112221
 30
0.0
 11
1131.902529
 21
176.159147
 31
0.0
  0
LINE
  5
D0
330
30
100
AcDbEntity
  8
LC-002-002-----0
 62
     1
370
    25
100
AcDbLine
 10
1131.902529
 20
176.159147
 30
0.0
 11
1140.855603
 21
167.206073
 31
0.0
  0
CIRCLE
  5
D1
330
30
100
AcDbEntity
  8
LC-001-111-----0
 62
   253
370
    25
100
AcDbCircle
 10
946.345603
 20
176.159147
 30
0.0
 40
13.89000000000002
  0
LINE
  5
D2
330
30
100
AcDbEntity
  8
LC-001-111-----0
 62
   253
370
    25
100
AcDbLine
 10
890.335603
 20
158.649147
 30
0.0
 11
893.855603
 21
158.649147
 31
0.0
  0
LINE
  5
D3
330
30
100
AcDbEntity
  8
LC-001-111-----0
 62
   253
370
    25
100
AcDbLine
 10
893.855603
 20
158.649147
 30
0.0
 11
893.855603
 21
193.669147
 31
0.0
  0
ARC
  5
D4
330
30
100
AcDbEntity
  8
LC-001-111-----0
 62
   253
370
    25
100
AcDbCircle
 10
758.906662
 20
168.924866
 30
0.0
 40
20.55472179307891
100
AcDbArc
 50
57.190491
 51
90.951212
  0
ARC
  5
D5
330
30
100
AcDbEntity
  8
LC-001-111-----0
 62
   253
370
    25
100
AcDbCircle
 10
761.779647
 20
167.692822
 30
0.0
 40
12.23104525444841
100
AcDbArc
 50
274.343327
 51
74.255463
  0
LINE
  5
D6
330
30
100
AcDbEntity
  8
LC-001-111-----0
 62
   253
370
    25
100
AcDbLine
 10
893.855603
 20
193.669147
 30
0.0
 11
890.335603
 21
193.669147
 31
0.0
  0
LINE
  5
D7
330
30
100
AcDbEntity
  8
LC-001-111-----0
 62
   253
370
    25
100
AcDbLine
 10
890.335603
 20
193.669147
 30
0.0
 11
890.335603
 21
158.649147
 31
0.0
  0
LINE
  5
D8
330
30
100
AcDbEntity
  8
LC-001-111-----0
 62
   253
370
    25
100
AcDbLine
 10
890.335603
 20
176.159147
 30
0.0
 11
869.355603
 21
176.159147
 31
0.0
  0
LINE
  5
D9
330
30
100
AcDbEntity
  8
LC-001-111-----0
 62
   253
370
    25
100
AcDbLine
 10
869.355603
 20
158.649147
 30
0.0
 11
869.355603
 21
193.669147
 31
0.0
  0
LINE
  5
DA
330
30
100
AcDbEntity
  8
LC-001-111-----0
 62
   253
370
    25
100
AcDbLine
 10
869.355603
 20
193.669147
 30
0.0
 11
865.835603
 21
193.669147
 31
0.0
  0
LINE
  5
DB
330
30
100
AcDbEntity
  8
LC-001-111-----0
 62
   253
370
    25
100
AcDbLine
 10
865.835603
 20
193.669147
 30
0.0
 11
865.835603
 21
158.649147
 31
0.0
  0
LINE
  5
DC
330
30
100
AcDbEntity
  8
LC-001-111-----0
 62
   253
370
    25
100
AcDbLine
 10
867.595603
 20
192.169147
 30
0.0
 11
867.595603
 21
160.149147
 31
0.0
  0
CIRCLE
  5
DD
330
30
100
AcDbEntity
  8
LC-001-111-----0
 62
   253
370
    25
100
AcDbCircle
 10
946.345603
 20
176.159147
 30
0.0
 40
15.38999999999984
  0
LINE
  5
DE
330
30
100
AcDbEntity
  8
LC-001-111-----0
 62
   253
370
    25
100
AcDbLine
 10
1072.679261
 20
176.159147
 30
0.0
 11
1088.520928
 21
157.149147
 31
0.0
  0
LINE
  5
DF
330
30
100
AcDbEntity
  8
LC-001-111-----0
 62
   253
370
    25
100
AcDbLine
 10
1088.520928
 20
157.149147
 30
0.0
 11
1096.09687
 21
157.149147
 31
0.0
  0
LINE
  5
E0
330
30
100
AcDbEntity
  8
LC-001-111-----0
 62
   253
370
    25
100
AcDbLine
 10
1096.09687
 20
157.149147
 30
0.0
 11
1080.255204
 21
176.159147
 31
0.0
  0
LINE
  5
E1
330
30
100
AcDbEntity
  8
LC-001-111-----0
 62
   253
370
    25
100
AcDbLine
 10
770.044191
 20
186.20063
 30
0.0
 11
770.044191
 21
193.903002
 31
0.0
  0
ARC
  5
E2
330
30
100
AcDbEntity
  8
LC-001-111-----0
 62
   253
370
    25
100
AcDbCircle
 10
761.412387
 20
186.963179
 30
0.0
 40
23.54367341134796
100
AcDbArc
 50
232.518913
 51
268.246912
  0
ARC
  5
E3
330
30
100
AcDbEntity
  8
LC-001-111-----0
 62
   253
370
    25
100
AcDbCircle
 10
760.836588
 20
168.15034
 30
0.0
 40
4.722024781007908
100
AcDbArc
 50
268.246912
 51
72.731329
  0
LINE
  5
E4
330
30
100
AcDbEntity
  8
LC-001-111-----0
 62
   253
370
    25
100
AcDbLine
 10
757.542274
 20
181.595277
 30
0.0
 11
765.098525
 21
179.464972
 31
0.0
  0
ARC
  5
E5
330
30
100
AcDbEntity
  8
LC-001-111-----0
 62
   253
370
    25
100
AcDbCircle
 10
758.632108
 20
185.460948
 30
0.0
 40
4.016360130100384
100
AcDbArc
 50
90.951212
 51
254.255463
  0
ARC
  5
E6
330
30
100
AcDbEntity
  8
LC-001-111-----0
 62
   253
370
    25
100
AcDbCircle
 10
758.032826
 20
185.671748
 30
0.0
 40
11.17727081470983
100
AcDbArc
 50
94.48185
 51
252.731329
  0
LINE
  5
E7
330
30
100
AcDbEntity
  8
LC-001-111-----0
 62
   253
370
    25
100
AcDbLine
 10
762.238334
 20
172.659511
 30
0.0
 11
754.714822
 21
174.998312
 31
0.0
  0
LINE
  5
E8
330
30
100
AcDbEntity
  8
LC-001-111-----0
 62
   253
370
    25
100
AcDbLine
 10
747.086073
 20
168.279997
 30
0.0
 11
747.086073
 21
159.524163
 31
0.0
  0
ARC
  5
E9
330
30
100
AcDbEntity
  8
LC-001-111-----0
 62
   253
370
    25
100
AcDbCircle
 10
758.903191
 20
174.567744
 30
0.0
 40
22.31533311668187
100
AcDbArc
 50
60.049399
 51
94.48185
  0
ARC
  5
EA
330
30
100
AcDbEntity
  8
LC-001-111-----0
 62
   253
370
    25
100
AcDbCircle
 10
760.81067
 20
180.45076
 30
0.0
 40
25.02572762426604
100
AcDbArc
 50
236.741348
 51
274.343327
  0
LINE
  5
EB
330
30
100
AcDbEntity
  8
LC-001-111-----0
 62
   253
370
    25
100
AcDbLine
 10
1080.255204
 20
176.159147
 30
0.0
 11
1096.09687
 21
195.169147
 31
0.0
  0
LINE
  5
EC
330
30
100
AcDbEntity
  8
LC-001-111-----0
 62
   253
370
    25
100
AcDbLine
 10
750.086073
 20
162.957321
 30
0.0
 11
750.086073
 21
161.212369
 31
0.0
  0
LINE
  5
ED
330
30
100
AcDbEntity
  8
LC-001-111-----0
 62
   253
370
    25
100
AcDbLine
 10
1078.302641
 20
176.159147
 30
0.0
 11
1092.894308
 21
193.669147
 31
0.0
  0
LINE
  5
EE
330
30
100
AcDbEntity
  8
LC-002-002-----0
 62
     1
370
    25
100
AcDbLine
 10
1139.355603
 20
170.827393
 30
0.0
 11
1139.355603
 21
181.490901
 31
0.0
  0
LINE
  5
EF
330
30
100
AcDbEntity
  8
LC-002-002-----0
 62
     1
370
    25
100
AcDbLine
 10
1139.355603
 20
181.490901
 30
0.0
 11
1134.023849
 21
176.159147
 31
0.0
  0
LINE
  5
F0
330
30
100
AcDbEntity
  8
LC-002-002-----0
 62
     1
370
    25
100
AcDbLine
 10
1134.023849
 20
176.159147
 30
0.0
 11
1139.355603
 21
170.827393
 31
0.0
  0
LINE
  5
F1
330
30
100
AcDbEntity
  8
LC-002-002-----0
 62
     1
370
    25
100
AcDbLine
 10
1137.855603
 20
174.448713
 30
0.0
 11
1137.855603
 21
177.869581
 31
0.0
  0
LINE
  5
F2
330
30
100
AcDbEntity
  8
LC-002-002-----0
 62
     1
370
    25
100
AcDbLine
 10
1137.855603
 20
177.869581
 30
0.0
 11
1136.145169
 21
176.159147
 31
0.0
  0
LINE
  5
F3
330
30
100
AcDbEntity
  8
LC-002-002-----0
 62
     1
370
    25
100
AcDbLine
 10
1136.145169
 20
176.159147
 30
0.0
 11
1137.855603
 21
174.448713
 31
0.0
  0
LINE
  5
F4
330
30
100
AcDbEntity
  8
LC-001-111-----0
 62
   253
370
    25
100
AcDbLine
 10
1092.894308
 20
193.669147
 30
0.0
 11
1089.22349
 21
193.669147
 31
0.0
  0
LINE
  5
F5
330
30
100
AcDbEntity
  8
LC-001-111-----0
 62
   253
370
    25
100
AcDbLine
 10
1089.22349
 20
193.669147
 30
0.0
 11
1074.631824
 21
176.159147
 31
0.0
  0
ARC
  5
F6
330
30
100
AcDbEntity
  8
LC-001-111-----0
 62
   253
370
    25
100
AcDbCircle
 10
1019.845603
 20
176.159147
 30
0.0
 40
15.38999999999992
100
AcDbArc
 50
76.816519
 51
283.183481
  0
LINE
  5
F7
330
30
100
AcDbEntity
  8
LC-001-111-----0
 62
   253
370
    25
100
AcDbLine
 10
1074.631824
 20
176.159147
 30
0.0
 11
1089.22349
 21
158.649147
 31
0.0
  0
LINE
  5
F8
330
30
100
AcDbEntity
  8
LC-001-111-----0
 62
   253
370
    25
100
AcDbLine
 10
1089.22349
 20
158.649147
 30
0.0
 11
1092.894308
 21
158.649147
 31
0.0
  0
LINE
  5
F9
330
30
100
AcDbEntity
  8
LC-001-111-----0
 62
   253
370
    25
100
AcDbLine
 10
1092.894308
 20
158.649147
 30
0.0
 11
1078.302641
 21
176.159147
 31
0.0
  0
LINE
  5
FA
330
30
100
AcDbEntity
  8
LC-001-111-----0
 62
   253
370
    25
100
AcDbLine
 10
1076.467232
 20
176.159147
 30
0.0
 11
1090.098623
 21
192.516815
 31
0.0
  0
LINE
  5
FB
330
30
100
AcDbEntity
  8
LC-001-111-----0
 62
   253
370
    25
100
AcDbLine
 10
1076.467232
 20
176.159147
 30
0.0
 11
1090.098623
 21
159.801479
 31
0.0
  0
ARC
  5
FC
330
30
100
AcDbEntity
  8
LC-001-111-----0
 62
   253
370
    25
100
AcDbCircle
 10
760.81067
 20
180.45076
 30
0.0
 40
22.02572762426587
100
AcDbArc
 50
240.862164
 51
274.343327
  0
ARC
  5
FD
330
30
100
AcDbEntity
  8
LC-001-111-----0
 62
   253
370
    25
100
AcDbCircle
 10
761.779647
 20
167.692822
 30
0.0
 40
9.231045254448425
100
AcDbArc
 50
274.343327
 51
74.255463
  0
LINE
  5
FE
330
30
100
AcDbEntity
  8
LC-001-111-----0
 62
   253
370
    25
100
AcDbLine
 10
764.284479
 20
176.577529
 30
0.0
 11
756.728228
 21
178.707834
 31
0.0
  0
ARC
  5
FF
330
30
100
AcDbEntity
  8
LC-001-111-----0
 62
   253
370
    25
100
AcDbCircle
 10
758.632108
 20
185.460948
 30
0.0
 40
7.016360130100396
100
AcDbArc
 50
90.951212
 51
254.255463
  0
ARC
  5
100
330
30
100
AcDbEntity
  8
LC-001-111-----0
 62
   253
370
    25
100
AcDbCircle
 10
758.906662
 20
168.924866
 30
0.0
 40
23.55472179307856
100
AcDbArc
 50
69.789306
 51
90.951212
  0
LINE
  5
101
330
30
100
AcDbEntity
  8
LC-001-111-----0
 62
   253
370
    25
100
AcDbLine
 10
767.044191
 20
191.029289
 30
0.0
 11
767.044191
 21
192.083629
 31
0.0
  0
ENDBLK
  5
32
330
30
100
AcDbEntity
  8
0
100
AcDbBlockEnd
  0
BLOCK
  5
125
330
124
100
AcDbEntity
  8
0
100
AcDbBlockBegin
  2
LCDIM1
 70
     0
 71
     0
 10
0.0
 20
0.0
 30
0.0
  3
LCDIM1
  1

  4
LCDIM1
  0
TEXT
  5
128
330
124
100
AcDbEntity
  8
LC-006-003-----0
 62
     7
370
    25
100
AcDbText
 10
473.127981
 20
2021.634983
 30
0.0
 40
25.0
  1
R46
 50
313.843201
 41
0.7
  7
LCTX0-400-0-0pDIN-Schrift
 72
     2
 11
506.607861
 21
1986.775139
 31
0.0
100
AcDbText
  0
LINE
  5
12A
330
124
100
AcDbEntity
  8
LC-007-003-MTG-0
 62
     7
370
    25
100
AcDbLine
 10
469.325785
 20
2003.939099
 30
0.0
 11
527.247672
 21
1943.629796
 31
0.0
  0
LINE
  5
12B
330
124
100
AcDbEntity
  8
LC-006-003-----0
 62
     7
370
    25
100
AcDbLine
 10
507.725133
 20
1959.246148
 30
0.0
 11
527.247672
 21
1943.629796
 31
0.0
  0
LINE
  5
12C
330
124
100
AcDbEntity
  8
LC-006-003-----0
 62
     7
370
    25
100
AcDbLine
 10
527.247672
 20
1943.629796
 30
0.0
 11
512.432156
 21
1963.766839
 31
0.0
  0
LINE
  5
12D
330
124
100
AcDbEntity
  8
LC-006-003-----0
 62
     7
370
    25
100
AcDbLine
 10
512.432156
 20
1963.766839
 30
0.0
 11
507.725133
 21
1959.246148
 31
0.0
  0
LINE
  5
12E
330
124
100
AcDbEntity
  8
LC-006-003-----0
 62
     7
370
    25
100
AcDbLine
 10
508.298526
 20
1959.873945
 30
0.0
 11
522.745205
 21
1948.317844
 31
0.0
  0
LINE
  5
12F
330
124
100
AcDbEntity
  8
LC-006-003-----0
 62
     7
370
    25
100
AcDbLine
 10
522.745205
 20
1948.317844
 30
0.0
 11
511.781724
 21
1963.219256
 31
0.0
  0
LINE
  5
130
330
124
100
AcDbEntity
  8
LC-006-003-----0
 62
     7
370
    25
100
AcDbLine
 10
508.87192
 20
1960.501742
 30
0.0
 11
518.242739
 21
1953.005892
 31
0.0
  0
LINE
  5
131
330
124
100
AcDbEntity
  8
LC-006-003-----0
 62
     7
370
    25
100
AcDbLine
 10
518.242739
 20
1953.005892
 30
0.0
 11
511.131292
 21
1962.671673
 31
0.0
  0
LINE
  5
132
330
124
100
AcDbEntity
  8
LC-006-003-----0
 62
     7
370
    25
100
AcDbLine
 10
509.445314
 20
1961.129538
 30
0.0
 11
513.740273
 21
1957.693941
 31
0.0
  0
LINE
  5
133
330
124
100
AcDbEntity
  8
LC-006-003-----0
 62
     7
370
    25
100
AcDbLine
 10
513.740273
 20
1957.693941
 30
0.0
 11
510.480859
 21
1962.12409
 31
0.0
  0
ENDBLK
  5
126
330
124
100
AcDbEntity
  8
0
100
AcDbBlockEnd
  0
BLOCK
  5
136
330
135
100
AcDbEntity
  8
0
100
AcDbBlockBegin
  2
LCDIM2
 70
     0
 71
     0
 10
0.0
 20
0.0
 30
0.0
  3
LCDIM2
  1

  4
LCDIM2
  0
LINE
  5
139
330
135
100
AcDbEntity
  8
LC-008-003-MTH-0
 62
     7
370
    25
100
AcDbLine
 10
513.111274
 20
1624.923126
 30
0.0
 11
513.111274
 21
1485.0
 31
0.0
  0
LINE
  5
13A
330
135
100
AcDbEntity
  8
LC-008-003-MTH-0
 62
     7
370
    25
100
AcDbLine
 10
1014.640981
 20
1624.923126
 30
0.0
 11
1014.640981
 21
1485.0
 31
0.0
  0
LINE
  5
13B
330
135
100
AcDbEntity
  8
LC-007-003-MTG-0
 62
     7
370
    25
100
AcDbLine
 10
513.111274
 20
1500.0
 30
0.0
 11
1014.640981
 21
1500.0
 31
0.0
  0
LINE
  5
13C
330
135
100
AcDbEntity
  8
LC-006-003-----0
 62
     7
370
    25
100
AcDbLine
 10
537.897396
 20
1503.263155
 30
0.0
 11
513.111274
 21
1500.0
 31
0.0
  0
LINE
  5
13D
330
135
100
AcDbEntity
  8
LC-006-003-----0
 62
     7
370
    25
100
AcDbLine
 10
513.111274
 20
1500.0
 30
0.0
 11
537.897396
 21
1496.736845
 31
0.0
  0
LINE
  5
13E
330
135
100
AcDbEntity
  8
LC-006-003-----0
 62
     7
370
    25
100
AcDbLine
 10
537.897396
 20
1496.736845
 30
0.0
 11
537.897396
 21
1503.263155
 31
0.0
  0
LINE
  5
13F
330
135
100
AcDbEntity
  8
LC-006-003-----0
 62
     7
370
    25
100
AcDbLine
 10
537.953004
 20
1502.414735
 30
0.0
 11
519.611274
 21
1500.0
 31
0.0
  0
LINE
  5
140
330
135
100
AcDbEntity
  8
LC-006-003-----0
 62
     7
370
    25
100
AcDbLine
 10
519.611274
 20
1500.0
 30
0.0
 11
537.953004
 21
1497.585265
 31
0.0
  0
LINE
  5
141
330
135
100
AcDbEntity
  8
LC-006-003-----0
 62
     7
370
    25
100
AcDbLine
 10
538.008613
 20
1501.566314
 30
0.0
 11
526.111274
 21
1500.0
 31
0.0
  0
LINE
  5
142
330
135
100
AcDbEntity
  8
LC-006-003-----0
 62
     7
370
    25
100
AcDbLine
 10
526.111274
 20
1500.0
 30
0.0
 11
538.008613
 21
1498.433686
 31
0.0
  0
LINE
  5
143
330
135
100
AcDbEntity
  8
LC-006-003-----0
 62
     7
370
    25
100
AcDbLine
 10
538.064221
 20
1500.717894
 30
0.0
 11
532.611274
 21
1500.0
 31
0.0
  0
LINE
  5
144
330
135
100
AcDbEntity
  8
LC-006-003-----0
 62
     7
370
    25
100
AcDbLine
 10
532.611274
 20
1500.0
 30
0.0
 11
538.064221
 21
1499.282106
 31
0.0
  0
LINE
  5
145
330
135
100
AcDbEntity
  8
LC-006-003-----0
 62
     7
370
    25
100
AcDbLine
 10
989.854859
 20
1496.736845
 30
0.0
 11
1014.640981
 21
1500.0
 31
0.0
  0
LINE
  5
146
330
135
100
AcDbEntity
  8
LC-006-003-----0
 62
     7
370
    25
100
AcDbLine
 10
1014.640981
 20
1500.0
 30
0.0
 11
989.854859
 21
1503.263155
 31
0.0
  0
LINE
  5
147
330
135
100
AcDbEntity
  8
LC-006-003-----0
 62
     7
370
    25
100
AcDbLine
 10
989.854859
 20
1503.263155
 30
0.0
 11
989.854859
 21
1496.736845
 31
0.0
  0
LINE
  5
148
330
135
100
AcDbEntity
  8
LC-006-003-----0
 62
     7
370
    25
100
AcDbLine
 10
989.799251
 20
1497.585265
 30
0.0
 11
1008.140981
 21
1500.0
 31
0.0
  0
LINE
  5
149
330
135
100
AcDbEntity
  8
LC-006-003-----0
 62
     7
370
    25
100
AcDbLine
 10
1008.140981
 20
1500.0
 30
0.0
 11
989.799251
 21
1502.414735
 31
0.0
  0
LINE
  5
14A
330
135
100
AcDbEntity
  8
LC-006-003-----0
 62
     7
370
    25
100
AcDbLine
 10
989.743642
 20
1498.433686
 30
0.0
 11
1001.640981
 21
1500.0
 31
0.0
  0
LINE
  5
14B
330
135
100
AcDbEntity
  8
LC-006-003-----0
 62
     7
370
    25
100
AcDbLine
 10
1001.640981
 20
1500.0
 30
0.0
 11
989.743642
 21
1501.566314
 31
0.0
  0
LINE
  5
14C
330
135
100
AcDbEntity
  8
LC-006-003-----0
 62
     7
370
    25
100
AcDbLine
 10
989.688034
 20
1499.282106
 30
0.0
 11
995.140981
 21
1500.0
 31
0.0
  0
LINE
  5
14D
330
135
100
AcDbEntity
  8
LC-006-003-----0
 62
     7
370
    25
100
AcDbLine
 10
995.140981
 20
1500.0
 30
0.0
 11
989.688034
 21
1500.717894
 31
0.0
  0
TEXT
  5
14E
330
135
100
AcDbEntity
  8
LC-006-003-----0
 62
     7
370
    25
100
AcDbText
 10
724.225045
 20
1515.0
 30
0.0
 40
25.0
  1
501,5
 41
0.7
  7
LCTX0-400-0-0pDIN-Schrift
 72
     1
 11
761.725045
 21
1515.0
 31
0.0
100
AcDbText
  0
ENDBLK
  5
137
330
135
100
AcDbEntity
  8
0
100
AcDbBlockEnd
  0
BLOCK
  5
152
330
151
100
AcDbEntity
  8
0
100
AcDbBlockBegin
  2
LCDIM3
 70
     0
 71
     0
 10
0.0
 20
0.0
 30
0.0
  3
LCDIM3
  1

  4
LCDIM3
  0
LINE
  5
154
330
151
100
AcDbEntity
  8
LC-008-003-MTH-0
 62
     7
370
    25
100
AcDbLine
 10
968.640981
 20
1578.923126
 30
0.0
 11
1115.0
 21
1578.923126
 31
0.0
  0
LINE
  5
155
330
151
100
AcDbEntity
  8
LC-008-003-MTH-0
 62
     7
370
    25
100
AcDbLine
 10
968.640981
 20
1956.452833
 30
0.0
 11
1115.0
 21
1956.452833
 31
0.0
  0
LINE
  5
156
330
151
100
AcDbEntity
  8
LC-007-003-MTG-0
 62
     7
370
    25
100
AcDbLine
 10
1100.0
 20
1578.923126
 30
0.0
 11
1100.0
 21
1956.452833
 31
0.0
  0
LINE
  5
157
330
151
100
AcDbEntity
  8
LC-006-003-----0
 62
     7
370
    25
100
AcDbLine
 10
1096.736845
 20
1603.709248
 30
0.0
 11
1100.0
 21
1578.923126
 31
0.0
  0
LINE
  5
158
330
151
100
AcDbEntity
  8
LC-006-003-----0
 62
     7
370
    25
100
AcDbLine
 10
1100.0
 20
1578.923126
 30
0.0
 11
1103.263155
 21
1603.709248
 31
0.0
  0
LINE
  5
159
330
151
100
AcDbEntity
  8
LC-006-003-----0
 62
     7
370
    25
100
AcDbLine
 10
1103.263155
 20
1603.709248
 30
0.0
 11
1096.736845
 21
1603.709248
 31
0.0
  0
LINE
  5
15A
330
151
100
AcDbEntity
  8
LC-006-003-----0
 62
     7
370
    25
100
AcDbLine
 10
1097.585265
 20
1603.764856
 30
0.0
 11
1100.0
 21
1585.423126
 31
0.0
  0
LINE
  5
15B
330
151
100
AcDbEntity
  8
LC-006-003-----0
 62
     7
370
    25
100
AcDbLine
 10
1100.0
 20
1585.423126
 30
0.0
 11
1102.414735
 21
1603.764856
 31
0.0
  0
LINE
  5
15C
330
151
100
AcDbEntity
  8
LC-006-003-----0
 62
     7
370
    25
100
AcDbLine
 10
1098.433686
 20
1603.820464
 30
0.0
 11
1100.0
 21
1591.923126
 31
0.0
  0
LINE
  5
15D
330
151
100
AcDbEntity
  8
LC-006-003-----0
 62
     7
370
    25
100
AcDbLine
 10
1100.0
 20
1591.923126
 30
0.0
 11
1101.566314
 21
1603.820464
 31
0.0
  0
LINE
  5
15E
330
151
100
AcDbEntity
  8
LC-006-003-----0
 62
     7
370
    25
100
AcDbLine
 10
1099.282106
 20
1603.876073
 30
0.0
 11
1100.0
 21
1598.423126
 31
0.0
  0
LINE
  5
15F
330
151
100
AcDbEntity
  8
LC-006-003-----0
 62
     7
370
    25
100
AcDbLine
 10
1100.0
 20
1598.423126
 30
0.0
 11
1100.717894
 21
1603.876073
 31
0.0
  0
LINE
  5
160
330
151
100
AcDbEntity
  8
LC-006-003-----0
 62
     7
370
    25
100
AcDbLine
 10
1103.263155
 20
1931.666711
 30
0.0
 11
1100.0
 21
1956.452833
 31
0.0
  0
LINE
  5
161
330
151
100
AcDbEntity
  8
LC-006-003-----0
 62
     7
370
    25
100
AcDbLine
 10
1100.0
 20
1956.452833
 30
0.0
 11
1096.736845
 21
1931.666711
 31
0.0
  0
LINE
  5
162
330
151
100
AcDbEntity
  8
LC-006-003-----0
 62
     7
370
    25
100
AcDbLine
 10
1096.736845
 20
1931.666711
 30
0.0
 11
1103.263155
 21
1931.666711
 31
0.0
  0
LINE
  5
163
330
151
100
AcDbEntity
  8
LC-006-003-----0
 62
     7
370
    25
100
AcDbLine
 10
1102.414735
 20
1931.611103
 30
0.0
 11
1100.0
 21
1949.952833
 31
0.0
  0
LINE
  5
164
330
151
100
AcDbEntity
  8
LC-006-003-----0
 62
     7
370
    25
100
AcDbLine
 10
1100.0
 20
1949.952833
 30
0.0
 11
1097.585265
 21
1931.611103
 31
0.0
  0
LINE
  5
165
330
151
100
AcDbEntity
  8
LC-006-003-----0
 62
     7
370
    25
100
AcDbLine
 10
1101.566314
 20
1931.555494
 30
0.0
 11
1100.0
 21
1943.452833
 31
0.0
  0
LINE
  5
166
330
151
100
AcDbEntity
  8
LC-006-003-----0
 62
     7
370
    25
100
AcDbLine
 10
1100.0
 20
1943.452833
 30
0.0
 11
1098.433686
 21
1931.555494
 31
0.0
  0
LINE
  5
167
330
151
100
AcDbEntity
  8
LC-006-003-----0
 62
     7
370
    25
100
AcDbLine
 10
1100.717894
 20
1931.499886
 30
0.0
 11
1100.0
 21
1936.952833
 31
0.0
  0
LINE
  5
168
330
151
100
AcDbEntity
  8
LC-006-003-----0
 62
     7
370
    25
100
AcDbLine
 10
1100.0
 20
1936.952833
 30
0.0
 11
1099.282106
 21
1931.499886
 31
0.0
  0
TEXT
  5
169
330
151
100
AcDbEntity
  8
LC-006-003-----0
 62
     7
370
    25
100
AcDbText
 10
1085.0
 20
1713.704346
 30
0.0
 40
25.0
  1
377,5
 50
90.0
 41
0.7
  7
LCTX0-400-0-0pDIN-Schrift
 72
     1
 11
1085.0
 21
1751.204346
 31
0.0
100
AcDbText
  0
ENDBLK
  5
153
330
151
100
AcDbEntity
  8
0
100
AcDbBlockEnd
  0
BLOCK
  5
220
330
21F
100
AcDbEntity
  8
0
100
AcDbBlockBegin
  2
LCDIM4
 70
     0
 71
     0
 10
0.0
 20
0.0
 30
0.0
  3
LCDIM4
  1

  4
LCDIM4
  0
LINE
  5
222
330
21F
100
AcDbEntity
  8
LC-008-003-MTH-0
 62
     7
370
    25
100
AcDbLine
 10
539.496697
 20
2450.25
 30
0.0
 11
539.496697
 21
2515.0
 31
0.0
  0
LINE
  5
223
330
21F
100
AcDbEntity
  8
LC-008-003-MTH-0
 62
     7
370
    25
100
AcDbLine
 10
988.255558
 20
2450.25
 30
0.0
 11
988.255558
 21
2515.0
 31
0.0
  0
LINE
  5
224
330
21F
100
AcDbEntity
  8
LC-007-003-MTG-0
 62
     7
370
    25
100
AcDbLine
 10
539.496697
 20
2500.0
 30
0.0
 11
988.255558
 21
2500.0
 31
0.0
  0
LINE
  5
225
330
21F
100
AcDbEntity
  8
LC-006-003-----0
 62
     7
370
    25
100
AcDbLine
 10
564.282818
 20
2503.263155
 30
0.0
 11
539.496697
 21
2500.0
 31
0.0
  0
LINE
  5
226
330
21F
100
AcDbEntity
  8
LC-006-003-----0
 62
     7
370
    25
100
AcDbLine
 10
539.496697
 20
2500.0
 30
0.0
 11
564.282818
 21
2496.736845
 31
0.0
  0
LINE
  5
227
330
21F
100
AcDbEntity
  8
LC-006-003-----0
 62
     7
370
    25
100
AcDbLine
 10
564.282818
 20
2496.736845
 30
0.0
 11
564.282818
 21
2503.263155
 31
0.0
  0
LINE
  5
228
330
21F
100
AcDbEntity
  8
LC-006-003-----0
 62
     7
370
    25
100
AcDbLine
 10
564.338427
 20
2502.414735
 30
0.0
 11
545.996697
 21
2500.0
 31
0.0
  0
LINE
  5
229
330
21F
100
AcDbEntity
  8
LC-006-003-----0
 62
     7
370
    25
100
AcDbLine
 10
545.996697
 20
2500.0
 30
0.0
 11
564.338427
 21
2497.585265
 31
0.0
  0
LINE
  5
22A
330
21F
100
AcDbEntity
  8
LC-006-003-----0
 62
     7
370
    25
100
AcDbLine
 10
564.394035
 20
2501.566314
 30
0.0
 11
552.496697
 21
2500.0
 31
0.0
  0
LINE
  5
22B
330
21F
100
AcDbEntity
  8
LC-006-003-----0
 62
     7
370
    25
100
AcDbLine
 10
552.496697
 20
2500.0
 30
0.0
 11
564.394035
 21
2498.433686
 31
0.0
  0
LINE
  5
22C
330
21F
100
AcDbEntity
  8
LC-006-003-----0
 62
     7
370
    25
100
AcDbLine
 10
564.449644
 20
2500.717894
 30
0.0
 11
558.996697
 21
2500.0
 31
0.0
  0
LINE
  5
22D
330
21F
100
AcDbEntity
  8
LC-006-003-----0
 62
     7
370
    25
100
AcDbLine
 10
558.996697
 20
2500.0
 30
0.0
 11
564.449644
 21
2499.282106
 31
0.0
  0
LINE
  5
22E
330
21F
100
AcDbEntity
  8
LC-006-003-----0
 62
     7
370
    25
100
AcDbLine
 10
963.469436
 20
2496.736845
 30
0.0
 11
988.255558
 21
2500.0
 31
0.0
  0
LINE
  5
22F
330
21F
100
AcDbEntity
  8
LC-006-003-----0
 62
     7
370
    25
100
AcDbLine
 10
988.255558
 20
2500.0
 30
0.0
 11
963.469436
 21
2503.263155
 31
0.0
  0
LINE
  5
230
330
21F
100
AcDbEntity
  8
LC-006-003-----0
 62
     7
370
    25
100
AcDbLine
 10
963.469436
 20
2503.263155
 30
0.0
 11
963.469436
 21
2496.736845
 31
0.0
  0
LINE
  5
231
330
21F
100
AcDbEntity
  8
LC-006-003-----0
 62
     7
370
    25
100
AcDbLine
 10
963.413828
 20
2497.585265
 30
0.0
 11
981.755558
 21
2500.0
 31
0.0
  0
LINE
  5
232
330
21F
100
AcDbEntity
  8
LC-006-003-----0
 62
     7
370
    25
100
AcDbLine
 10
981.755558
 20
2500.0
 30
0.0
 11
963.413828
 21
2502.414735
 31
0.0
  0
LINE
  5
233
330
21F
100
AcDbEntity
  8
LC-006-003-----0
 62
     7
370
    25
100
AcDbLine
 10
963.35822
 20
2498.433686
 30
0.0
 11
975.255558
 21
2500.0
 31
0.0
  0
LINE
  5
234
330
21F
100
AcDbEntity
  8
LC-006-003-----0
 62
     7
370
    25
100
AcDbLine
 10
975.255558
 20
2500.0
 30
0.0
 11
963.35822
 21
2501.566314
 31
0.0
  0
LINE
  5
235
330
21F
100
AcDbEntity
  8
LC-006-003-----0
 62
     7
370
    25
100
AcDbLine
 10
963.302611
 20
2499.282106
 30
0.0
 11
968.755558
 21
2500.0
 31
0.0
  0
LINE
  5
236
330
21F
100
AcDbEntity
  8
LC-006-003-----0
 62
     7
370
    25
100
AcDbLine
 10
968.755558
 20
2500.0
 30
0.0
 11
963.302611
 21
2500.717894
 31
0.0
  0
TEXT
  5
237
330
21F
100
AcDbEntity
  8
LC-006-003-----0
 62
     7
370
    25
100
AcDbText
 10
734.770826
 20
2515.0
 30
0.0
 40
25.0
  1
449
 41
0.7
  7
LCTX0-400-0-0pDIN-Schrift
 72
     1
 11
759.35416
 21
2515.0
 31
0.0
100
AcDbText
  0
ENDBLK
  5
221
330
21F
100
AcDbEntity
  8
0
100
AcDbBlockEnd
  0
BLOCK
  5
23A
330
239
100
AcDbEntity
  8
0
100
AcDbBlockBegin
  2
LCDIM5
 70
     0
 71
     0
 10
0.0
 20
0.0
 30
0.0
  3
LCDIM5
  1

  4
LCDIM5
  0
LINE
  5
23C
330
239
100
AcDbEntity
  8
LC-008-003-MTH-0
 62
     7
370
    25
100
AcDbLine
 10
763.876127
 20
2282.25
 30
0.0
 11
735.0
 21
2282.25
 31
0.0
  0
LINE
  5
23D
330
239
100
AcDbEntity
  8
LC-008-003-MTH-0
 62
     7
370
    25
100
AcDbLine
 10
763.876127
 20
2450.25
 30
0.0
 11
735.0
 21
2450.25
 31
0.0
  0
LINE
  5
23E
330
239
100
AcDbEntity
  8
LC-007-003-MTG-0
 62
     7
370
    25
100
AcDbLine
 10
750.0
 20
2282.25
 30
0.0
 11
750.0
 21
2450.25
 31
0.0
  0
LINE
  5
23F
330
239
100
AcDbEntity
  8
LC-006-003-----0
 62
     7
370
    25
100
AcDbLine
 10
746.736845
 20
2307.036122
 30
0.0
 11
750.0
 21
2282.25
 31
0.0
  0
LINE
  5
240
330
239
100
AcDbEntity
  8
LC-006-003-----0
 62
     7
370
    25
100
AcDbLine
 10
750.0
 20
2282.25
 30
0.0
 11
753.263155
 21
2307.036122
 31
0.0
  0
LINE
  5
241
330
239
100
AcDbEntity
  8
LC-006-003-----0
 62
     7
370
    25
100
AcDbLine
 10
753.263155
 20
2307.036122
 30
0.0
 11
746.736845
 21
2307.036122
 31
0.0
  0
LINE
  5
242
330
239
100
AcDbEntity
  8
LC-006-003-----0
 62
     7
370
    25
100
AcDbLine
 10
747.585265
 20
2307.09173
 30
0.0
 11
750.0
 21
2288.75
 31
0.0
  0
LINE
  5
243
330
239
100
AcDbEntity
  8
LC-006-003-----0
 62
     7
370
    25
100
AcDbLine
 10
750.0
 20
2288.75
 30
0.0
 11
752.414735
 21
2307.09173
 31
0.0
  0
LINE
  5
244
330
239
100
AcDbEntity
  8
LC-006-003-----0
 62
     7
370
    25
100
AcDbLine
 10
748.433686
 20
2307.147339
 30
0.0
 11
750.0
 21
2295.25
 31
0.0
  0
LINE
  5
245
330
239
100
AcDbEntity
  8
LC-006-003-----0
 62
     7
370
    25
100
AcDbLine
 10
750.0
 20
2295.25
 30
0.0
 11
751.566314
 21
2307.147339
 31
0.0
  0
LINE
  5
246
330
239
100
AcDbEntity
  8
LC-006-003-----0
 62
     7
370
    25
100
AcDbLine
 10
749.282106
 20
2307.202947
 30
0.0
 11
750.0
 21
2301.75
 31
0.0
  0
LINE
  5
247
330
239
100
AcDbEntity
  8
LC-006-003-----0
 62
     7
370
    25
100
AcDbLine
 10
750.0
 20
2301.75
 30
0.0
 11
750.717894
 21
2307.202947
 31
0.0
  0
LINE
  5
248
330
239
100
AcDbEntity
  8
LC-006-003-----0
 62
     7
370
    25
100
AcDbLine
 10
753.263155
 20
2425.463878
 30
0.0
 11
750.0
 21
2450.25
 31
0.0
  0
LINE
  5
249
330
239
100
AcDbEntity
  8
LC-006-003-----0
 62
     7
370
    25
100
AcDbLine
 10
750.0
 20
2450.25
 30
0.0
 11
746.736845
 21
2425.463878
 31
0.0
  0
LINE
  5
24A
330
239
100
AcDbEntity
  8
LC-006-003-----0
 62
     7
370
    25
100
AcDbLine
 10
746.736845
 20
2425.463878
 30
0.0
 11
753.263155
 21
2425.463878
 31
0.0
  0
LINE
  5
24B
330
239
100
AcDbEntity
  8
LC-006-003-----0
 62
     7
370
    25
100
AcDbLine
 10
752.414735
 20
2425.40827
 30
0.0
 11
750.0
 21
2443.75
 31
0.0
  0
LINE
  5
24C
330
239
100
AcDbEntity
  8
LC-006-003-----0
 62
     7
370
    25
100
AcDbLine
 10
750.0
 20
2443.75
 30
0.0
 11
747.585265
 21
2425.40827
 31
0.0
  0
LINE
  5
24D
330
239
100
AcDbEntity
  8
LC-006-003-----0
 62
     7
370
    25
100
AcDbLine
 10
751.566314
 20
2425.352661
 30
0.0
 11
750.0
 21
2437.25
 31
0.0
  0
LINE
  5
24E
330
239
100
AcDbEntity
  8
LC-006-003-----0
 62
     7
370
    25
100
AcDbLine
 10
750.0
 20
2437.25
 30
0.0
 11
748.433686
 21
2425.352661
 31
0.0
  0
LINE
  5
24F
330
239
100
AcDbEntity
  8
LC-006-003-----0
 62
     7
370
    25
100
AcDbLine
 10
750.717894
 20
2425.297053
 30
0.0
 11
750.0
 21
2430.75
 31
0.0
  0
LINE
  5
250
330
239
100
AcDbEntity
  8
LC-006-003-----0
 62
     7
370
    25
100
AcDbLine
 10
750.0
 20
2430.75
 30
0.0
 11
749.282106
 21
2425.297053
 31
0.0
  0
TEXT
  5
251
330
239
100
AcDbEntity
  8
LC-006-003-----0
 62
     7
370
    25
100
AcDbText
 10
735.0
 20
2333.391792
 30
0.0
 40
25.0
  1
168
 50
90.0
 41
0.7
  7
LCTX0-400-0-0pDIN-Schrift
 72
     1
 11
735.0
 21
2359.641792
 31
0.0
100
AcDbText
  0
ENDBLK
  5
23B
330
239
100
AcDbEntity
  8
0
100
AcDbBlockEnd
  0
BLOCK
  5
256
330
255
100
AcDbEntity
  8
0
100
AcDbBlockBegin
  2
LCDIM6
 70
     0
 71
     0
 10
0.0
 20
0.0
 30
0.0
  3
LCDIM6
  1

  4
LCDIM6
  0
LINE
  5
258
330
255
100
AcDbEntity
  8
LC-008-003-MTH-0
 62
     7
370
    25
100
AcDbLine
 10
1698.086954
 20
1605.308548
 30
0.0
 11
1765.0
 21
1605.308548
 31
0.0
  0
LINE
  5
259
330
255
100
AcDbEntity
  8
LC-008-003-MTH-0
 62
     7
370
    25
100
AcDbLine
 10
1698.086954
 20
1930.06741
 30
0.0
 11
1765.0
 21
1930.06741
 31
0.0
  0
LINE
  5
25A
330
255
100
AcDbEntity
  8
LC-007-003-MTG-0
 62
     7
370
    25
100
AcDbLine
 10
1750.0
 20
1605.308548
 30
0.0
 11
1750.0
 21
1930.06741
 31
0.0
  0
LINE
  5
25B
330
255
100
AcDbEntity
  8
LC-006-003-----0
 62
     7
370
    25
100
AcDbLine
 10
1746.736845
 20
1630.09467
 30
0.0
 11
1750.0
 21
1605.308548
 31
0.0
  0
LINE
  5
25C
330
255
100
AcDbEntity
  8
LC-006-003-----0
 62
     7
370
    25
100
AcDbLine
 10
1750.0
 20
1605.308548
 30
0.0
 11
1753.263155
 21
1630.09467
 31
0.0
  0
LINE
  5
25D
330
255
100
AcDbEntity
  8
LC-006-003-----0
 62
     7
370
    25
100
AcDbLine
 10
1753.263155
 20
1630.09467
 30
0.0
 11
1746.736845
 21
1630.09467
 31
0.0
  0
LINE
  5
25E
330
255
100
AcDbEntity
  8
LC-006-003-----0
 62
     7
370
    25
100
AcDbLine
 10
1747.585265
 20
1630.150279
 30
0.0
 11
1750.0
 21
1611.808548
 31
0.0
  0
LINE
  5
25F
330
255
100
AcDbEntity
  8
LC-006-003-----0
 62
     7
370
    25
100
AcDbLine
 10
1750.0
 20
1611.808548
 30
0.0
 11
1752.414735
 21
1630.150279
 31
0.0
  0
LINE
  5
260
330
255
100
AcDbEntity
  8
LC-006-003-----0
 62
     7
370
    25
100
AcDbLine
 10
1748.433686
 20
1630.205887
 30
0.0
 11
1750.0
 21
1618.308549
 31
0.0
  0
LINE
  5
261
330
255
100
AcDbEntity
  8
LC-006-003-----0
 62
     7
370
    25
100
AcDbLine
 10
1750.0
 20
1618.308549
 30
0.0
 11
1751.566314
 21
1630.205887
 31
0.0
  0
LINE
  5
262
330
255
100
AcDbEntity
  8
LC-006-003-----0
 62
     7
370
    25
100
AcDbLine
 10
1749.282106
 20
1630.261495
 30
0.0
 11
1750.0
 21
1624.808549
 31
0.0
  0
LINE
  5
263
330
255
100
AcDbEntity
  8
LC-006-003-----0
 62
     7
370
    25
100
AcDbLine
 10
1750.0
 20
1624.808549
 30
0.0
 11
1750.717894
 21
1630.261495
 31
0.0
  0
LINE
  5
264
330
255
100
AcDbEntity
  8
LC-006-003-----0
 62
     7
370
    25
100
AcDbLine
 10
1753.263155
 20
1905.281288
 30
0.0
 11
1750.0
 21
1930.06741
 31
0.0
  0
LINE
  5
265
330
255
100
AcDbEntity
  8
LC-006-003-----0
 62
     7
370
    25
100
AcDbLine
 10
1750.0
 20
1930.06741
 30
0.0
 11
1746.736845
 21
1905.281288
 31
0.0
  0
LINE
  5
266
330
255
100
AcDbEntity
  8
LC-006-003-----0
 62
     7
370
    25
100
AcDbLine
 10
1746.736845
 20
1905.281288
 30
0.0
 11
1753.263155
 21
1905.281288
 31
0.0
  0
LINE
  5
267
330
255
100
AcDbEntity
  8
LC-006-003-----0
 62
     7
370
    25
100
AcDbLine
 10
1752.414735
 20
1905.22568
 30
0.0
 11
1750.0
 21
1923.56741
 31
0.0
  0
LINE
  5
268
330
255
100
AcDbEntity
  8
LC-006-003-----0
 62
     7
370
    25
100
AcDbLine
 10
1750.0
 20
1923.56741
 30
0.0
 11
1747.585265
 21
1905.22568
 31
0.0
  0
LINE
  5
269
330
255
100
AcDbEntity
  8
LC-006-003-----0
 62
     7
370
    25
100
AcDbLine
 10
1751.566314
 20
1905.170071
 30
0.0
 11
1750.0
 21
1917.06741
 31
0.0
  0
LINE
  5
26A
330
255
100
AcDbEntity
  8
LC-006-003-----0
 62
     7
370
    25
100
AcDbLine
 10
1750.0
 20
1917.06741
 30
0.0
 11
1748.433686
 21
1905.170071
 31
0.0
  0
LINE
  5
26B
330
255
100
AcDbEntity
  8
LC-006-003-----0
 62
     7
370
    25
100
AcDbLine
 10
1750.717894
 20
1905.114463
 30
0.0
 11
1750.0
 21
1910.56741
 31
0.0
  0
LINE
  5
26C
330
255
100
AcDbEntity
  8
LC-006-003-----0
 62
     7
370
    25
100
AcDbLine
 10
1750.0
 20
1910.56741
 30
0.0
 11
1749.282106
 21
1905.114463
 31
0.0
  0
TEXT
  5
26D
330
255
100
AcDbEntity
  8
LC-006-003-----0
 62
     7
370
    25
100
AcDbText
 10
1735.0
 20
1733.922762
 30
0.0
 40
25.0
  1
325
 50
90.0
 41
0.7
  7
LCTX0-400-0-0pDIN-Schrift
 72
     1
 11
1735.0
 21
1758.922762
 31
0.0
100
AcDbText
  0
ENDBLK
  5
257
330
255
100
AcDbEntity
  8
0
100
AcDbBlockEnd
  0
BLOCK
  5
270
330
26F
100
AcDbEntity
  8
0
100
AcDbBlockBegin
  2
LCDIM7
 70
     0
 71
     0
 10
0.0
 20
0.0
 30
0.0
  3
LCDIM7
  1

  4
LCDIM7
  0
TEXT
  5
272
330
26F
100
AcDbEntity
  8
LC-006-003-----0
 62
     7
370
    25
100
AcDbText
 10
620.223475
 20
1866.800958
 30
0.0
 40
25.0
  1
R20
 50
312.925568
 41
0.7
  7
LCTX0-400-0-0pDIN-Schrift
100
AcDbText
  0
LINE
  5
273
330
26F
100
AcDbEntity
  8
LC-007-003-MTG-0
 62
     7
370
    25
100
AcDbLine
 10
635.540251
 20
1828.307997
 30
0.0
 11
545.875742
 21
1924.712191
 31
0.0
  0
LINE
  5
274
330
26F
100
AcDbEntity
  8
LC-006-003-----0
 62
     7
370
    25
100
AcDbLine
 10
565.145683
 20
1908.785189
 30
0.0
 11
545.875742
 21
1924.712191
 31
0.0
  0
LINE
  5
275
330
26F
100
AcDbEntity
  8
LC-006-003-----0
 62
     7
370
    25
100
AcDbLine
 10
545.875742
 20
1924.712191
 30
0.0
 11
560.366864
 21
1904.340461
 31
0.0
  0
LINE
  5
276
330
26F
100
AcDbEntity
  8
LC-006-003-----0
 62
     7
370
    25
100
AcDbLine
 10
560.366864
 20
1904.340461
 30
0.0
 11
565.145683
 21
1908.785189
 31
0.0
  0
LINE
  5
277
330
26F
100
AcDbEntity
  8
LC-006-003-----0
 62
     7
370
    25
100
AcDbLine
 10
564.562308
 20
1908.166656
 30
0.0
 11
550.302552
 21
1919.952637
 31
0.0
  0
LINE
  5
278
330
26F
100
AcDbEntity
  8
LC-006-003-----0
 62
     7
370
    25
100
AcDbLine
 10
550.302552
 20
1919.952637
 30
0.0
 11
561.025983
 21
1904.877557
 31
0.0
  0
LINE
  5
279
330
26F
100
AcDbEntity
  8
LC-006-003-----0
 62
     7
370
    25
100
AcDbLine
 10
563.978934
 20
1907.548122
 30
0.0
 11
554.729362
 21
1915.193083
 31
0.0
  0
LINE
  5
27A
330
26F
100
AcDbEntity
  8
LC-006-003-----0
 62
     7
370
    25
100
AcDbLine
 10
554.729362
 20
1915.193083
 30
0.0
 11
561.685101
 21
1905.414653
 31
0.0
  0
LINE
  5
27B
330
26F
100
AcDbEntity
  8
LC-006-003-----0
 62
     7
370
    25
100
AcDbLine
 10
563.395559
 20
1906.929589
 30
0.0
 11
559.156173
 21
1910.433529
 31
0.0
  0
LINE
  5
27C
330
26F
100
AcDbEntity
  8
LC-006-003-----0
 62
     7
370
    25
100
AcDbLine
 10
559.156173
 20
1910.433529
 30
0.0
 11
562.344219
 21
1905.951749
 31
0.0
  0
ENDBLK
  5
271
330
26F
100
AcDbEntity
  8
0
100
AcDbBlockEnd
  0
BLOCK
  5
2CA
330
2C9
100
AcDbEntity
  8
0
100
AcDbBlockBegin
  2
POLY1
 70
     0
 71
     0
 10
0.0
 20
0.0
 30
0.0
  3
POLY1
  1

  4
POLY1
  0
LINE
  5
2CC
330
2C9
100
AcDbEntity
  8
LC-002-002-----0
 62
     7
370
    25
100
AcDbLine
 10
1419.509741
 20
1959.093666
 30
0.0
 11
1419.484725
 21
1959.068626
 31
0.0
  0
ENDBLK
  5
2CB
330
2C9
100
AcDbEntity
  8
0
100
AcDbBlockEnd
  0
BLOCK
  5
2DE
330
2DD
100
AcDbEntity
  8
0
100
AcDbBlockBegin
  2
POLY2
 70
     0
 71
     0
 10
0.0
 20
0.0
 30
0.0
  3
POLY2
  1

  4
POLY2
  0
LINE
  5
2E0
330
2DD
100
AcDbEntity
  8
LC-002-002-----0
 62
     7
370
    25
100
AcDbLine
 10
1462.697206
 20
1901.687973
 30
0.0
 11
1462.697206
 21
1901.687973
 31
0.0
  0
LINE
  5
2E1
330
2DD
100
AcDbEntity
  8
LC-002-002-----0
 62
     7
370
    25
100
AcDbLine
 10
1462.697206
 20
1901.687973
 30
0.0
 11
1462.638268
 21
1902.202746
 31
0.0
  0
LINE
  5
2E2
330
2DD
100
AcDbEntity
  8
LC-002-002-----0
 62
     7
370
    25
100
AcDbLine
 10
1462.638268
 20
1902.202746
 30
0.0
 11
1462.638268
 21
1902.202746
 31
0.0
  0
LINE
  5
2E3
330
2DD
100
AcDbEntity
  8
LC-002-002-----0
 62
     7
370
    25
100
AcDbLine
 10
1462.638268
 20
1902.202746
 30
0.0
 11
1462.464723
 21
1902.684104
 31
0.0
  0
LINE
  5
2E4
330
2DD
100
AcDbEntity
  8
LC-002-002-----0
 62
     7
370
    25
100
AcDbLine
 10
1462.464723
 20
1902.684104
 30
0.0
 11
1462.464723
 21
1902.684104
 31
0.0
  0
LINE
  5
2E5
330
2DD
100
AcDbEntity
  8
LC-002-002-----0
 62
     7
370
    25
100
AcDbLine
 10
1462.464723
 20
1902.684104
 30
0.0
 11
1462.188587
 21
1903.097671
 31
0.0
  0
LINE
  5
2E6
330
2DD
100
AcDbEntity
  8
LC-002-002-----0
 62
     7
370
    25
100
AcDbLine
 10
1462.188587
 20
1903.097671
 30
0.0
 11
1462.188587
 21
1903.097671
 31
0.0
  0
LINE
  5
2E7
330
2DD
100
AcDbEntity
  8
LC-002-002-----0
 62
     7
370
    25
100
AcDbLine
 10
1462.188587
 20
1903.097671
 30
0.0
 11
1461.827242
 21
1903.416616
 31
0.0
  0
LINE
  5
2E8
330
2DD
100
AcDbEntity
  8
LC-002-002-----0
 62
     7
370
    25
100
AcDbLine
 10
1461.827242
 20
1903.416616
 30
0.0
 11
1461.827242
 21
1903.416616
 31
0.0
  0
LINE
  5
2E9
330
2DD
100
AcDbEntity
  8
LC-002-002-----0
 62
     7
370
    25
100
AcDbLine
 10
1461.827242
 20
1903.416616
 30
0.0
 11
1461.403855
 21
1903.61858
 31
0.0
  0
LINE
  5
2EA
330
2DD
100
AcDbEntity
  8
LC-002-002-----0
 62
     7
370
    25
100
AcDbLine
 10
1461.403855
 20
1903.61858
 30
0.0
 11
1461.403855
 21
1903.61858
 31
0.0
  0
LINE
  5
2EB
330
2DD
100
AcDbEntity
  8
LC-002-002-----0
 62
     7
370
    25
100
AcDbLine
 10
1461.403855
 20
1903.61858
 30
0.0
 11
1460.946373
 21
1903.687973
 31
0.0
  0
ENDBLK
  5
2DF
330
2DD
100
AcDbEntity
  8
0
100
AcDbBlockEnd
  0
BLOCK
  5
2EF
330
2EE
100
AcDbEntity
  8
0
100
AcDbBlockBegin
  2
POLY3
 70
     0
 71
     0
 10
0.0
 20
0.0
 30
0.0
  3
POLY3
  1

  4
POLY3
  0
LINE
  5
2F1
330
2EE
100
AcDbEntity
  8
LC-002-002-----0
 62
     7
370
    25
100
AcDbLine
 10
1439.484725
 20
1901.687973
 30
0.0
 11
1439.484725
 21
1901.687973
 31
0.0
  0
LINE
  5
2F2
330
2EE
100
AcDbEntity
  8
LC-002-002-----0
 62
     7
370
    25
100
AcDbLine
 10
1439.484725
 20
1901.687973
 30
0.0
 11
1439.484759
 21
1902.202761
 31
0.0
  0
LINE
  5
2F3
330
2EE
100
AcDbEntity
  8
LC-002-002-----0
 62
     7
370
    25
100
AcDbLine
 10
1439.484759
 20
1902.202761
 30
0.0
 11
1439.484759
 21
1902.202761
 31
0.0
  0
LINE
  5
2F4
330
2EE
100
AcDbEntity
  8
LC-002-002-----0
 62
     7
370
    25
100
AcDbLine
 10
1439.484759
 20
1902.202761
 30
0.0
 11
1439.484722
 21
1902.684131
 31
0.0
  0
LINE
  5
2F5
330
2EE
100
AcDbEntity
  8
LC-002-002-----0
 62
     7
370
    25
100
AcDbLine
 10
1439.484722
 20
1902.684131
 30
0.0
 11
1439.484722
 21
1902.684131
 31
0.0
  0
LINE
  5
2F6
330
2EE
100
AcDbEntity
  8
LC-002-002-----0
 62
     7
370
    25
100
AcDbLine
 10
1439.484722
 20
1902.684131
 30
0.0
 11
1439.484729
 21
1903.097701
 31
0.0
  0
LINE
  5
2F7
330
2EE
100
AcDbEntity
  8
LC-002-002-----0
 62
     7
370
    25
100
AcDbLine
 10
1439.484729
 20
1903.097701
 30
0.0
 11
1439.484729
 21
1903.097701
 31
0.0
  0
LINE
  5
2F8
330
2EE
100
AcDbEntity
  8
LC-002-002-----0
 62
     7
370
    25
100
AcDbLine
 10
1439.484729
 20
1903.097701
 30
0.0
 11
1439.484703
 21
1903.416637
 31
0.0
  0
LINE
  5
2F9
330
2EE
100
AcDbEntity
  8
LC-002-002-----0
 62
     7
370
    25
100
AcDbLine
 10
1439.484703
 20
1903.416637
 30
0.0
 11
1439.484703
 21
1903.416637
 31
0.0
  0
LINE
  5
2FA
330
2EE
100
AcDbEntity
  8
LC-002-002-----0
 62
     7
370
    25
100
AcDbLine
 10
1439.484703
 20
1903.416637
 30
0.0
 11
1439.484752
 21
1903.618594
 31
0.0
  0
LINE
  5
2FB
330
2EE
100
AcDbEntity
  8
LC-002-002-----0
 62
     7
370
    25
100
AcDbLine
 10
1439.484752
 20
1903.618594
 30
0.0
 11
1439.484752
 21
1903.618594
 31
0.0
  0
LINE
  5
2FC
330
2EE
100
AcDbEntity
  8
LC-002-002-----0
 62
     7
370
    25
100
AcDbLine
 10
1439.484752
 20
1903.618594
 30
0.0
 11
1439.484734
 21
1903.687973
 31
0.0
  0
ENDBLK
  5
2F0
330
2EE
100
AcDbEntity
  8
0
100
AcDbBlockEnd
  0
BLOCK
  5
300
330
2FF
100
AcDbEntity
  8
0
100
AcDbBlockBegin
  2
POLY4
 70
     0
 71
     0
 10
0.0
 20
0.0
 30
0.0
  3
POLY4
  1

  4
POLY4
  0
LINE
  5
302
330
2FF
100
AcDbEntity
  8
LC-002-002-----0
 62
     7
370
    25
100
AcDbLine
 10
1416.272244
 20
1901.687973
 30
0.0
 11
1416.272244
 21
1901.687973
 31
0.0
  0
LINE
  5
303
330
2FF
100
AcDbEntity
  8
LC-002-002-----0
 62
     7
370
    25
100
AcDbLine
 10
1416.272244
 20
1901.687973
 30
0.0
 11
1416.331182
 21
1902.202746
 31
0.0
  0
LINE
  5
304
330
2FF
100
AcDbEntity
  8
LC-002-002-----0
 62
     7
370
    25
100
AcDbLine
 10
1416.331182
 20
1902.202746
 30
0.0
 11
1416.331182
 21
1902.202746
 31
0.0
  0
LINE
  5
305
330
2FF
100
AcDbEntity
  8
LC-002-002-----0
 62
     7
370
    25
100
AcDbLine
 10
1416.331182
 20
1902.202746
 30
0.0
 11
1416.504728
 21
1902.684104
 31
0.0
  0
LINE
  5
306
330
2FF
100
AcDbEntity
  8
LC-002-002-----0
 62
     7
370
    25
100
AcDbLine
 10
1416.504728
 20
1902.684104
 30
0.0
 11
1416.504728
 21
1902.684104
 31
0.0
  0
LINE
  5
307
330
2FF
100
AcDbEntity
  8
LC-002-002-----0
 62
     7
370
    25
100
AcDbLine
 10
1416.504728
 20
1902.684104
 30
0.0
 11
1416.780863
 21
1903.097671
 31
0.0
  0
LINE
  5
308
330
2FF
100
AcDbEntity
  8
LC-002-002-----0
 62
     7
370
    25
100
AcDbLine
 10
1416.780863
 20
1903.097671
 30
0.0
 11
1416.780863
 21
1903.097671
 31
0.0
  0
LINE
  5
309
330
2FF
100
AcDbEntity
  8
LC-002-002-----0
 62
     7
370
    25
100
AcDbLine
 10
1416.780863
 20
1903.097671
 30
0.0
 11
1417.142209
 21
1903.416616
 31
0.0
  0
LINE
  5
30A
330
2FF
100
AcDbEntity
  8
LC-002-002-----0
 62
     7
370
    25
100
AcDbLine
 10
1417.142209
 20
1903.416616
 30
0.0
 11
1417.142209
 21
1903.416616
 31
0.0
  0
LINE
  5
30B
330
2FF
100
AcDbEntity
  8
LC-002-002-----0
 62
     7
370
    25
100
AcDbLine
 10
1417.142209
 20
1903.416616
 30
0.0
 11
1417.565596
 21
1903.61858
 31
0.0
  0
LINE
  5
30C
330
2FF
100
AcDbEntity
  8
LC-002-002-----0
 62
     7
370
    25
100
AcDbLine
 10
1417.565596
 20
1903.61858
 30
0.0
 11
1417.565596
 21
1903.61858
 31
0.0
  0
LINE
  5
30D
330
2FF
100
AcDbEntity
  8
LC-002-002-----0
 62
     7
370
    25
100
AcDbLine
 10
1417.565596
 20
1903.61858
 30
0.0
 11
1418.023078
 21
1903.687973
 31
0.0
  0
ENDBLK
  5
301
330
2FF
100
AcDbEntity
  8
0
100
AcDbBlockEnd
  0
BLOCK
  5
34D
330
34C
100
AcDbEntity
  8
0
100
AcDbBlockBegin
  2
POLY5
 70
     0
 71
     0
 10
0.0
 20
0.0
 30
0.0
  3
POLY5
  1

  4
POLY5
  0
LINE
  5
34F
330
34C
100
AcDbEntity
  8
LC-002-002-----0
 62
     7
370
    25
100
AcDbLine
 10
1641.259863
 20
1938.706323
 30
0.0
 11
1641.259863
 21
1938.706323
 31
0.0
  0
LINE
  5
350
330
34C
100
AcDbEntity
  8
LC-002-002-----0
 62
     7
370
    25
100
AcDbLine
 10
1641.259863
 20
1938.706323
 30
0.0
 11
1641.045681
 21
1938.661414
 31
0.0
  0
LINE
  5
351
330
34C
100
AcDbEntity
  8
LC-002-002-----0
 62
     7
370
    25
100
AcDbLine
 10
1641.045681
 20
1938.661414
 30
0.0
 11
1641.045681
 21
1938.661414
 31
0.0
  0
LINE
  5
352
330
34C
100
AcDbEntity
  8
LC-002-002-----0
 62
     7
370
    25
100
AcDbLine
 10
1641.045681
 20
1938.661414
 30
0.0
 11
1640.832026
 21
1938.584606
 31
0.0
  0
LINE
  5
353
330
34C
100
AcDbEntity
  8
LC-002-002-----0
 62
     7
370
    25
100
AcDbLine
 10
1640.832026
 20
1938.584606
 30
0.0
 11
1640.832026
 21
1938.584606
 31
0.0
  0
LINE
  5
354
330
34C
100
AcDbEntity
  8
LC-002-002-----0
 62
     7
370
    25
100
AcDbLine
 10
1640.832026
 20
1938.584606
 30
0.0
 11
1640.628234
 21
1938.484493
 31
0.0
  0
LINE
  5
355
330
34C
100
AcDbEntity
  8
LC-002-002-----0
 62
     7
370
    25
100
AcDbLine
 10
1640.628234
 20
1938.484493
 30
0.0
 11
1640.628234
 21
1938.484493
 31
0.0
  0
LINE
  5
356
330
34C
100
AcDbEntity
  8
LC-002-002-----0
 62
     7
370
    25
100
AcDbLine
 10
1640.628234
 20
1938.484493
 30
0.0
 11
1640.436164
 21
1938.366536
 31
0.0
  0
LINE
  5
357
330
34C
100
AcDbEntity
  8
LC-002-002-----0
 62
     7
370
    25
100
AcDbLine
 10
1640.436164
 20
1938.366536
 30
0.0
 11
1640.436164
 21
1938.366536
 31
0.0
  0
LINE
  5
358
330
34C
100
AcDbEntity
  8
LC-002-002-----0
 62
     7
370
    25
100
AcDbLine
 10
1640.436164
 20
1938.366536
 30
0.0
 11
1640.258693
 21
1938.237112
 31
0.0
  0
LINE
  5
359
330
34C
100
AcDbEntity
  8
LC-002-002-----0
 62
     7
370
    25
100
AcDbLine
 10
1640.258693
 20
1938.237112
 30
0.0
 11
1640.258693
 21
1938.237112
 31
0.0
  0
LINE
  5
35A
330
34C
100
AcDbEntity
  8
LC-002-002-----0
 62
     7
370
    25
100
AcDbLine
 10
1640.258693
 20
1938.237112
 30
0.0
 11
1640.094912
 21
1938.098484
 31
0.0
  0
LINE
  5
35B
330
34C
100
AcDbEntity
  8
LC-002-002-----0
 62
     7
370
    25
100
AcDbLine
 10
1640.094912
 20
1938.098484
 30
0.0
 11
1640.094912
 21
1938.098484
 31
0.0
  0
LINE
  5
35C
330
34C
100
AcDbEntity
  8
LC-002-002-----0
 62
     7
370
    25
100
AcDbLine
 10
1640.094912
 20
1938.098484
 30
0.0
 11
1639.945262
 21
1937.952007
 31
0.0
  0
LINE
  5
35D
330
34C
100
AcDbEntity
  8
LC-002-002-----0
 62
     7
370
    25
100
AcDbLine
 10
1639.945262
 20
1937.952007
 30
0.0
 11
1639.945262
 21
1937.952007
 31
0.0
  0
LINE
  5
35E
330
34C
100
AcDbEntity
  8
LC-002-002-----0
 62
     7
370
    25
100
AcDbLine
 10
1639.945262
 20
1937.952007
 30
0.0
 11
1639.811311
 21
1937.799929
 31
0.0
  0
LINE
  5
35F
330
34C
100
AcDbEntity
  8
LC-002-002-----0
 62
     7
370
    25
100
AcDbLine
 10
1639.811311
 20
1937.799929
 30
0.0
 11
1639.811311
 21
1937.799929
 31
0.0
  0
LINE
  5
360
330
34C
100
AcDbEntity
  8
LC-002-002-----0
 62
     7
370
    25
100
AcDbLine
 10
1639.811311
 20
1937.799929
 30
0.0
 11
1639.6951
 21
1937.645888
 31
0.0
  0
LINE
  5
361
330
34C
100
AcDbEntity
  8
LC-002-002-----0
 62
     7
370
    25
100
AcDbLine
 10
1639.6951
 20
1937.645888
 30
0.0
 11
1639.6951
 21
1937.645888
 31
0.0
  0
LINE
  5
362
330
34C
100
AcDbEntity
  8
LC-002-002-----0
 62
     7
370
    25
100
AcDbLine
 10
1639.6951
 20
1937.645888
 30
0.0
 11
1639.598508
 21
1937.494825
 31
0.0
  0
ENDBLK
  5
34E
330
34C
100
AcDbEntity
  8
0
100
AcDbBlockEnd
  0
BLOCK
  5
365
330
364
100
AcDbEntity
  8
0
100
AcDbBlockBegin
  2
POLY6
 70
     0
 71
     0
 10
0.0
 20
0.0
 30
0.0
  3
POLY6
  1

  4
POLY6
  0
LINE
  5
367
330
364
100
AcDbEntity
  8
LC-002-002-----0
 62
     7
370
    25
100
AcDbLine
 10
1639.27427
 20
1936.951258
 30
0.0
 11
1639.27427
 21
1936.951258
 31
0.0
  0
LINE
  5
368
330
364
100
AcDbEntity
  8
LC-002-002-----0
 62
     7
370
    25
100
AcDbLine
 10
1639.27427
 20
1936.951258
 30
0.0
 11
1639.310848
 21
1937.011358
 31
0.0
  0
LINE
  5
369
330
364
100
AcDbEntity
  8
LC-002-002-----0
 62
     7
370
    25
100
AcDbLine
 10
1639.310848
 20
1937.011358
 30
0.0
 11
1639.310848
 21
1937.011358
 31
0.0
  0
LINE
  5
36A
330
364
100
AcDbEntity
  8
LC-002-002-----0
 62
     7
370
    25
100
AcDbLine
 10
1639.310848
 20
1937.011358
 30
0.0
 11
1639.419613
 21
1937.192427
 31
0.0
  0
LINE
  5
36B
330
364
100
AcDbEntity
  8
LC-002-002-----0
 62
     7
370
    25
100
AcDbLine
 10
1639.419613
 20
1937.192427
 30
0.0
 11
1639.419613
 21
1937.192427
 31
0.0
  0
LINE
  5
36C
330
364
100
AcDbEntity
  8
LC-002-002-----0
 62
     7
370
    25
100
AcDbLine
 10
1639.419613
 20
1937.192427
 30
0.0
 11
1639.598508
 21
1937.494825
 31
0.0
  0
ENDBLK
  5
366
330
364
100
AcDbEntity
  8
0
100
AcDbBlockEnd
  0
BLOCK
  5
36F
330
36E
100
AcDbEntity
  8
0
100
AcDbBlockBegin
  2
POLY7
 70
     0
 71
     0
 10
0.0
 20
0.0
 30
0.0
  3
POLY7
  1

  4
POLY7
  0
LINE
  5
371
330
36E
100
AcDbEntity
  8
LC-002-002-----0
 62
     7
370
    25
100
AcDbLine
 10
1633.631629
 20
1954.334239
 30
0.0
 11
1633.631629
 21
1954.334239
 31
0.0
  0
LINE
  5
372
330
36E
100
AcDbEntity
  8
LC-002-002-----0
 62
     7
370
    25
100
AcDbLine
 10
1633.631629
 20
1954.334239
 30
0.0
 11
1633.506554
 21
1954.348952
 31
0.0
  0
LINE
  5
373
330
36E
100
AcDbEntity
  8
LC-002-002-----0
 62
     7
370
    25
100
AcDbLine
 10
1633.506554
 20
1954.348952
 30
0.0
 11
1633.506554
 21
1954.348952
 31
0.0
  0
LINE
  5
374
330
36E
100
AcDbEntity
  8
LC-002-002-----0
 62
     7
370
    25
100
AcDbLine
 10
1633.506554
 20
1954.348952
 30
0.0
 11
1633.447481
 21
1954.352224
 31
0.0
  0
LINE
  5
375
330
36E
100
AcDbEntity
  8
LC-002-002-----0
 62
     7
370
    25
100
AcDbLine
 10
1633.447481
 20
1954.352224
 30
0.0
 11
1633.447481
 21
1954.352224
 31
0.0
  0
LINE
  5
376
330
36E
100
AcDbEntity
  8
LC-002-002-----0
 62
     7
370
    25
100
AcDbLine
 10
1633.447481
 20
1954.352224
 30
0.0
 11
1633.388326
 21
1954.353163
 31
0.0
  0
LINE
  5
377
330
36E
100
AcDbEntity
  8
LC-002-002-----0
 62
     7
370
    25
100
AcDbLine
 10
1633.388326
 20
1954.353163
 30
0.0
 11
1633.388326
 21
1954.353163
 31
0.0
  0
LINE
  5
378
330
36E
100
AcDbEntity
  8
LC-002-002-----0
 62
     7
370
    25
100
AcDbLine
 10
1633.388326
 20
1954.353163
 30
0.0
 11
1633.32918
 21
1954.351769
 31
0.0
  0
LINE
  5
379
330
36E
100
AcDbEntity
  8
LC-002-002-----0
 62
     7
370
    25
100
AcDbLine
 10
1633.32918
 20
1954.351769
 30
0.0
 11
1633.32918
 21
1954.351769
 31
0.0
  0
LINE
  5
37A
330
36E
100
AcDbEntity
  8
LC-002-002-----0
 62
     7
370
    25
100
AcDbLine
 10
1633.32918
 20
1954.351769
 30
0.0
 11
1633.270134
 21
1954.348044
 31
0.0
  0
LINE
  5
37B
330
36E
100
AcDbEntity
  8
LC-002-002-----0
 62
     7
370
    25
100
AcDbLine
 10
1633.270134
 20
1954.348044
 30
0.0
 11
1633.270134
 21
1954.348044
 31
0.0
  0
LINE
  5
37C
330
36E
100
AcDbEntity
  8
LC-002-002-----0
 62
     7
370
    25
100
AcDbLine
 10
1633.270134
 20
1954.348044
 30
0.0
 11
1633.211282
 21
1954.341994
 31
0.0
  0
LINE
  5
37D
330
36E
100
AcDbEntity
  8
LC-002-002-----0
 62
     7
370
    25
100
AcDbLine
 10
1633.211282
 20
1954.341994
 30
0.0
 11
1633.211282
 21
1954.341994
 31
0.0
  0
LINE
  5
37E
330
36E
100
AcDbEntity
  8
LC-002-002-----0
 62
     7
370
    25
100
AcDbLine
 10
1633.211282
 20
1954.341994
 30
0.0
 11
1632.943253
 21
1954.283714
 31
0.0
  0
ENDBLK
  5
370
330
36E
100
AcDbEntity
  8
0
100
AcDbBlockEnd
  0
BLOCK
  5
381
330
380
100
AcDbEntity
  8
0
100
AcDbBlockBegin
  2
POLY8
 70
     0
 71
     0
 10
0.0
 20
0.0
 30
0.0
  3
POLY8
  1

  4
POLY8
  0
LINE
  5
383
330
380
100
AcDbEntity
  8
LC-002-002-----0
 62
     7
370
    25
100
AcDbLine
 10
1511.809497
 20
1946.138684
 30
0.0
 11
1511.809497
 21
1946.138684
 31
0.0
  0
LINE
  5
384
330
380
100
AcDbEntity
  8
LC-002-002-----0
 62
     7
370
    25
100
AcDbLine
 10
1511.809497
 20
1946.138684
 30
0.0
 11
1511.809534
 21
1945.9937
 31
0.0
  0
LINE
  5
385
330
380
100
AcDbEntity
  8
LC-002-002-----0
 62
     7
370
    25
100
AcDbLine
 10
1511.809534
 20
1945.9937
 30
0.0
 11
1511.809534
 21
1945.9937
 31
0.0
  0
LINE
  5
386
330
380
100
AcDbEntity
  8
LC-002-002-----0
 62
     7
370
    25
100
AcDbLine
 10
1511.809534
 20
1945.9937
 30
0.0
 11
1511.809974
 21
1945.569059
 31
0.0
  0
LINE
  5
387
330
380
100
AcDbEntity
  8
LC-002-002-----0
 62
     7
370
    25
100
AcDbLine
 10
1511.809974
 20
1945.569059
 30
0.0
 11
1511.809974
 21
1945.569059
 31
0.0
  0
LINE
  5
388
330
380
100
AcDbEntity
  8
LC-002-002-----0
 62
     7
370
    25
100
AcDbLine
 10
1511.809974
 20
1945.569059
 30
0.0
 11
1511.809546
 21
1944.864712
 31
0.0
  0
LINE
  5
389
330
380
100
AcDbEntity
  8
LC-002-002-----0
 62
     7
370
    25
100
AcDbLine
 10
1511.809546
 20
1944.864712
 30
0.0
 11
1511.809546
 21
1944.864712
 31
0.0
  0
LINE
  5
38A
330
380
100
AcDbEntity
  8
LC-002-002-----0
 62
     7
370
    25
100
AcDbLine
 10
1511.809546
 20
1944.864712
 30
0.0
 11
1511.809407
 21
1943.866301
 31
0.0
  0
LINE
  5
38B
330
380
100
AcDbEntity
  8
LC-002-002-----0
 62
     7
370
    25
100
AcDbLine
 10
1511.809407
 20
1943.866301
 30
0.0
 11
1511.809407
 21
1943.866301
 31
0.0
  0
LINE
  5
38C
330
380
100
AcDbEntity
  8
LC-002-002-----0
 62
     7
370
    25
100
AcDbLine
 10
1511.809407
 20
1943.866301
 30
0.0
 11
1511.80945
 21
1942.521206
 31
0.0
  0
LINE
  5
38D
330
380
100
AcDbEntity
  8
LC-002-002-----0
 62
     7
370
    25
100
AcDbLine
 10
1511.80945
 20
1942.521206
 30
0.0
 11
1511.80945
 21
1942.521206
 31
0.0
  0
LINE
  5
38E
330
380
100
AcDbEntity
  8
LC-002-002-----0
 62
     7
370
    25
100
AcDbLine
 10
1511.80945
 20
1942.521206
 30
0.0
 11
1511.809467
 21
1940.829353
 31
0.0
  0
LINE
  5
38F
330
380
100
AcDbEntity
  8
LC-002-002-----0
 62
     7
370
    25
100
AcDbLine
 10
1511.809467
 20
1940.829353
 30
0.0
 11
1511.809467
 21
1940.829353
 31
0.0
  0
LINE
  5
390
330
380
100
AcDbEntity
  8
LC-002-002-----0
 62
     7
370
    25
100
AcDbLine
 10
1511.809467
 20
1940.829353
 30
0.0
 11
1511.80977
 21
1938.826048
 31
0.0
  0
LINE
  5
391
330
380
100
AcDbEntity
  8
LC-002-002-----0
 62
     7
370
    25
100
AcDbLine
 10
1511.80977
 20
1938.826048
 30
0.0
 11
1511.80977
 21
1938.826048
 31
0.0
  0
LINE
  5
392
330
380
100
AcDbEntity
  8
LC-002-002-----0
 62
     7
370
    25
100
AcDbLine
 10
1511.80977
 20
1938.826048
 30
0.0
 11
1511.809618
 21
1936.56761
 31
0.0
  0
LINE
  5
393
330
380
100
AcDbEntity
  8
LC-002-002-----0
 62
     7
370
    25
100
AcDbLine
 10
1511.809618
 20
1936.56761
 30
0.0
 11
1511.809618
 21
1936.56761
 31
0.0
  0
LINE
  5
394
330
380
100
AcDbEntity
  8
LC-002-002-----0
 62
     7
370
    25
100
AcDbLine
 10
1511.809618
 20
1936.56761
 30
0.0
 11
1511.809583
 21
1934.14468
 31
0.0
  0
LINE
  5
395
330
380
100
AcDbEntity
  8
LC-002-002-----0
 62
     7
370
    25
100
AcDbLine
 10
1511.809583
 20
1934.14468
 30
0.0
 11
1511.809583
 21
1934.14468
 31
0.0
  0
LINE
  5
396
330
380
100
AcDbEntity
  8
LC-002-002-----0
 62
     7
370
    25
100
AcDbLine
 10
1511.809583
 20
1934.14468
 30
0.0
 11
1511.809585
 21
1931.662486
 31
0.0
  0
LINE
  5
397
330
380
100
AcDbEntity
  8
LC-002-002-----0
 62
     7
370
    25
100
AcDbLine
 10
1511.809585
 20
1931.662486
 30
0.0
 11
1511.809585
 21
1931.662486
 31
0.0
  0
LINE
  5
398
330
380
100
AcDbEntity
  8
LC-002-002-----0
 62
     7
370
    25
100
AcDbLine
 10
1511.809585
 20
1931.662486
 30
0.0
 11
1511.809635
 21
1929.250142
 31
0.0
  0
LINE
  5
399
330
380
100
AcDbEntity
  8
LC-002-002-----0
 62
     7
370
    25
100
AcDbLine
 10
1511.809635
 20
1929.250142
 30
0.0
 11
1511.809635
 21
1929.250142
 31
0.0
  0
LINE
  5
39A
330
380
100
AcDbEntity
  8
LC-002-002-----0
 62
     7
370
    25
100
AcDbLine
 10
1511.809635
 20
1929.250142
 30
0.0
 11
1511.809772
 21
1927.011074
 31
0.0
  0
LINE
  5
39B
330
380
100
AcDbEntity
  8
LC-002-002-----0
 62
     7
370
    25
100
AcDbLine
 10
1511.809772
 20
1927.011074
 30
0.0
 11
1511.809772
 21
1927.011074
 31
0.0
  0
LINE
  5
39C
330
380
100
AcDbEntity
  8
LC-002-002-----0
 62
     7
370
    25
100
AcDbLine
 10
1511.809772
 20
1927.011074
 30
0.0
 11
1511.809473
 21
1925.02923
 31
0.0
  0
LINE
  5
39D
330
380
100
AcDbEntity
  8
LC-002-002-----0
 62
     7
370
    25
100
AcDbLine
 10
1511.809473
 20
1925.02923
 30
0.0
 11
1511.809473
 21
1925.02923
 31
0.0
  0
LINE
  5
39E
330
380
100
AcDbEntity
  8
LC-002-002-----0
 62
     7
370
    25
100
AcDbLine
 10
1511.809473
 20
1925.02923
 30
0.0
 11
1511.809459
 21
1923.354939
 31
0.0
  0
LINE
  5
39F
330
380
100
AcDbEntity
  8
LC-002-002-----0
 62
     7
370
    25
100
AcDbLine
 10
1511.809459
 20
1923.354939
 30
0.0
 11
1511.809459
 21
1923.354939
 31
0.0
  0
LINE
  5
3A0
330
380
100
AcDbEntity
  8
LC-002-002-----0
 62
     7
370
    25
100
AcDbLine
 10
1511.809459
 20
1923.354939
 30
0.0
 11
1511.809405
 21
1922.019787
 31
0.0
  0
LINE
  5
3A1
330
380
100
AcDbEntity
  8
LC-002-002-----0
 62
     7
370
    25
100
AcDbLine
 10
1511.809405
 20
1922.019787
 30
0.0
 11
1511.809405
 21
1922.019787
 31
0.0
  0
LINE
  5
3A2
330
380
100
AcDbEntity
  8
LC-002-002-----0
 62
     7
370
    25
100
AcDbLine
 10
1511.809405
 20
1922.019787
 30
0.0
 11
1511.809535
 21
1921.023852
 31
0.0
  0
LINE
  5
3A3
330
380
100
AcDbEntity
  8
LC-002-002-----0
 62
     7
370
    25
100
AcDbLine
 10
1511.809535
 20
1921.023852
 30
0.0
 11
1511.809535
 21
1921.023852
 31
0.0
  0
LINE
  5
3A4
330
380
100
AcDbEntity
  8
LC-002-002-----0
 62
     7
370
    25
100
AcDbLine
 10
1511.809535
 20
1921.023852
 30
0.0
 11
1511.809943
 21
1920.317756
 31
0.0
  0
LINE
  5
3A5
330
380
100
AcDbEntity
  8
LC-002-002-----0
 62
     7
370
    25
100
AcDbLine
 10
1511.809943
 20
1920.317756
 30
0.0
 11
1511.809943
 21
1920.317756
 31
0.0
  0
LINE
  5
3A6
330
380
100
AcDbEntity
  8
LC-002-002-----0
 62
     7
370
    25
100
AcDbLine
 10
1511.809943
 20
1920.317756
 30
0.0
 11
1511.809505
 21
1919.890108
 31
0.0
  0
LINE
  5
3A7
330
380
100
AcDbEntity
  8
LC-002-002-----0
 62
     7
370
    25
100
AcDbLine
 10
1511.809505
 20
1919.890108
 30
0.0
 11
1511.809505
 21
1919.890108
 31
0.0
  0
LINE
  5
3A8
330
380
100
AcDbEntity
  8
LC-002-002-----0
 62
     7
370
    25
100
AcDbLine
 10
1511.809505
 20
1919.890108
 30
0.0
 11
1511.809466
 21
1919.743603
 31
0.0
  0
ENDBLK
  5
382
330
380
100
AcDbEntity
  8
0
100
AcDbBlockEnd
  0
BLOCK
  5
3DD
330
3DC
100
AcDbEntity
  8
0
100
AcDbBlockBegin
  2
POLY9
 70
     0
 71
     0
 10
0.0
 20
0.0
 30
0.0
  3
POLY9
  1

  4
POLY9
  0
LINE
  5
3DF
330
3DC
100
AcDbEntity
  8
LC-002-002-----0
 62
     7
370
    25
100
AcDbLine
 10
1474.521935
 20
1896.937973
 30
0.0
 11
1474.521935
 21
1896.937973
 31
0.0
  0
LINE
  5
3E0
330
3DC
100
AcDbEntity
  8
LC-002-002-----0
 62
     7
370
    25
100
AcDbLine
 10
1474.521935
 20
1896.937973
 30
0.0
 11
1474.456973
 21
1897.113899
 31
0.0
  0
LINE
  5
3E1
330
3DC
100
AcDbEntity
  8
LC-002-002-----0
 62
     7
370
    25
100
AcDbLine
 10
1474.456973
 20
1897.113899
 30
0.0
 11
1474.456973
 21
1897.113899
 31
0.0
  0
LINE
  5
3E2
330
3DC
100
AcDbEntity
  8
LC-002-002-----0
 62
     7
370
    25
100
AcDbLine
 10
1474.456973
 20
1897.113899
 30
0.0
 11
1474.395954
 21
1897.280586
 31
0.0
  0
LINE
  5
3E3
330
3DC
100
AcDbEntity
  8
LC-002-002-----0
 62
     7
370
    25
100
AcDbLine
 10
1474.395954
 20
1897.280586
 30
0.0
 11
1474.395954
 21
1897.280586
 31
0.0
  0
LINE
  5
3E4
330
3DC
100
AcDbEntity
  8
LC-002-002-----0
 62
     7
370
    25
100
AcDbLine
 10
1474.395954
 20
1897.280586
 30
0.0
 11
1474.338814
 21
1897.437973
 31
0.0
  0
ENDBLK
  5
3DE
330
3DC
100
AcDbEntity
  8
0
100
AcDbBlockEnd
  0
BLOCK
  5
3E7
330
3E6
100
AcDbEntity
  8
0
100
AcDbBlockBegin
  2
POLY10
 70
     0
 71
     0
 10
0.0
 20
0.0
 30
0.0
  3
POLY10
  1

  4
POLY10
  0
LINE
  5
3E9
330
3E6
100
AcDbEntity
  8
LC-002-002-----0
 62
     7
370
    25
100
AcDbLine
 10
1476.139425
 20
1897.437973
 30
0.0
 11
1476.139425
 21
1897.437973
 31
0.0
  0
LINE
  5
3EA
330
3E6
100
AcDbEntity
  8
LC-002-002-----0
 62
     7
370
    25
100
AcDbLine
 10
1476.139425
 20
1897.437973
 30
0.0
 11
1475.744816
 21
1897.280601
 31
0.0
  0
LINE
  5
3EB
330
3E6
100
AcDbEntity
  8
LC-002-002-----0
 62
     7
370
    25
100
AcDbLine
 10
1475.744816
 20
1897.280601
 30
0.0
 11
1475.744816
 21
1897.280601
 31
0.0
  0
LINE
  5
3EC
330
3E6
100
AcDbEntity
  8
LC-002-002-----0
 62
     7
370
    25
100
AcDbLine
 10
1475.744816
 20
1897.280601
 30
0.0
 11
1475.349013
 21
1897.113914
 31
0.0
  0
LINE
  5
3ED
330
3E6
100
AcDbEntity
  8
LC-002-002-----0
 62
     7
370
    25
100
AcDbLine
 10
1475.349013
 20
1897.113914
 30
0.0
 11
1475.349013
 21
1897.113914
 31
0.0
  0
LINE
  5
3EE
330
3E6
100
AcDbEntity
  8
LC-002-002-----0
 62
     7
370
    25
100
AcDbLine
 10
1475.349013
 20
1897.113914
 30
0.0
 11
1474.952177
 21
1896.937973
 31
0.0
  0
ENDBLK
  5
3E8
330
3E6
100
AcDbEntity
  8
0
100
AcDbBlockEnd
  0
BLOCK
  5
3F1
330
3F0
100
AcDbEntity
  8
0
100
AcDbBlockBegin
  2
POLY11
 70
     0
 71
     0
 10
0.0
 20
0.0
 30
0.0
  3
POLY11
  1

  4
POLY11
  0
LINE
  5
3F3
330
3F0
100
AcDbEntity
  8
LC-002-002-----0
 62
     7
370
    25
100
AcDbLine
 10
1491.406577
 20
1896.937973
 30
0.0
 11
1491.406577
 21
1896.937973
 31
0.0
  0
LINE
  5
3F4
330
3F0
100
AcDbEntity
  8
LC-002-002-----0
 62
     7
370
    25
100
AcDbLine
 10
1491.406577
 20
1896.937973
 30
0.0
 11
1490.944715
 21
1897.113925
 31
0.0
  0
LINE
  5
3F5
330
3F0
100
AcDbEntity
  8
LC-002-002-----0
 62
     7
370
    25
100
AcDbLine
 10
1490.944715
 20
1897.113925
 30
0.0
 11
1490.944715
 21
1897.113925
 31
0.0
  0
LINE
  5
3F6
330
3F0
100
AcDbEntity
  8
LC-002-002-----0
 62
     7
370
    25
100
AcDbLine
 10
1490.944715
 20
1897.113925
 30
0.0
 11
1490.48786
 21
1897.280611
 31
0.0
  0
LINE
  5
3F7
330
3F0
100
AcDbEntity
  8
LC-002-002-----0
 62
     7
370
    25
100
AcDbLine
 10
1490.48786
 20
1897.280611
 30
0.0
 11
1490.48786
 21
1897.280611
 31
0.0
  0
LINE
  5
3F8
330
3F0
100
AcDbEntity
  8
LC-002-002-----0
 62
     7
370
    25
100
AcDbLine
 10
1490.48786
 20
1897.280611
 30
0.0
 11
1490.036108
 21
1897.437973
 31
0.0
  0
ENDBLK
  5
3F2
330
3F0
100
AcDbEntity
  8
0
100
AcDbBlockEnd
  0
BLOCK
  5
3FB
330
3FA
100
AcDbEntity
  8
0
100
AcDbBlockBegin
  2
POLY12
 70
     0
 71
     0
 10
0.0
 20
0.0
 30
0.0
  3
POLY12
  1

  4
POLY12
  0
LINE
  5
3FD
330
3FA
100
AcDbEntity
  8
LC-002-002-----0
 62
     7
370
    25
100
AcDbLine
 10
1474.952177
 20
1907.187973
 30
0.0
 11
1474.952177
 21
1907.187973
 31
0.0
  0
LINE
  5
3FE
330
3FA
100
AcDbEntity
  8
LC-002-002-----0
 62
     7
370
    25
100
AcDbLine
 10
1474.952177
 20
1907.187973
 30
0.0
 11
1474.986029
 21
1907.434649
 31
0.0
  0
LINE
  5
3FF
330
3FA
100
AcDbEntity
  8
LC-002-002-----0
 62
     7
370
    25
100
AcDbLine
 10
1474.986029
 20
1907.434649
 30
0.0
 11
1474.986029
 21
1907.434649
 31
0.0
  0
LINE
  5
400
330
3FA
100
AcDbEntity
  8
LC-002-002-----0
 62
     7
370
    25
100
AcDbLine
 10
1474.986029
 20
1907.434649
 30
0.0
 11
1475.09122
 21
1907.684803
 31
0.0
  0
LINE
  5
401
330
3FA
100
AcDbEntity
  8
LC-002-002-----0
 62
     7
370
    25
100
AcDbLine
 10
1475.09122
 20
1907.684803
 30
0.0
 11
1475.09122
 21
1907.684803
 31
0.0
  0
LINE
  5
402
330
3FA
100
AcDbEntity
  8
LC-002-002-----0
 62
     7
370
    25
100
AcDbLine
 10
1475.09122
 20
1907.684803
 30
0.0
 11
1475.264437
 21
1907.92105
 31
0.0
  0
LINE
  5
403
330
3FA
100
AcDbEntity
  8
LC-002-002-----0
 62
     7
370
    25
100
AcDbLine
 10
1475.264437
 20
1907.92105
 30
0.0
 11
1475.264437
 21
1907.92105
 31
0.0
  0
LINE
  5
404
330
3FA
100
AcDbEntity
  8
LC-002-002-----0
 62
     7
370
    25
100
AcDbLine
 10
1475.264437
 20
1907.92105
 30
0.0
 11
1475.489418
 21
1908.130617
 31
0.0
  0
LINE
  5
405
330
3FA
100
AcDbEntity
  8
LC-002-002-----0
 62
     7
370
    25
100
AcDbLine
 10
1475.489418
 20
1908.130617
 30
0.0
 11
1475.489418
 21
1908.130617
 31
0.0
  0
LINE
  5
406
330
3FA
100
AcDbEntity
  8
LC-002-002-----0
 62
     7
370
    25
100
AcDbLine
 10
1475.489418
 20
1908.130617
 30
0.0
 11
1475.753449
 21
1908.312855
 31
0.0
  0
LINE
  5
407
330
3FA
100
AcDbEntity
  8
LC-002-002-----0
 62
     7
370
    25
100
AcDbLine
 10
1475.753449
 20
1908.312855
 30
0.0
 11
1475.753449
 21
1908.312855
 31
0.0
  0
LINE
  5
408
330
3FA
100
AcDbEntity
  8
LC-002-002-----0
 62
     7
370
    25
100
AcDbLine
 10
1475.753449
 20
1908.312855
 30
0.0
 11
1476.056228
 21
1908.473106
 31
0.0
  0
LINE
  5
409
330
3FA
100
AcDbEntity
  8
LC-002-002-----0
 62
     7
370
    25
100
AcDbLine
 10
1476.056228
 20
1908.473106
 30
0.0
 11
1476.056228
 21
1908.473106
 31
0.0
  0
LINE
  5
40A
330
3FA
100
AcDbEntity
  8
LC-002-002-----0
 62
     7
370
    25
100
AcDbLine
 10
1476.056228
 20
1908.473106
 30
0.0
 11
1476.400181
 21
1908.615417
 31
0.0
  0
LINE
  5
40B
330
3FA
100
AcDbEntity
  8
LC-002-002-----0
 62
     7
370
    25
100
AcDbLine
 10
1476.400181
 20
1908.615417
 30
0.0
 11
1476.400181
 21
1908.615417
 31
0.0
  0
LINE
  5
40C
330
3FA
100
AcDbEntity
  8
LC-002-002-----0
 62
     7
370
    25
100
AcDbLine
 10
1476.400181
 20
1908.615417
 30
0.0
 11
1476.790133
 21
1908.741298
 31
0.0
  0
LINE
  5
40D
330
3FA
100
AcDbEntity
  8
LC-002-002-----0
 62
     7
370
    25
100
AcDbLine
 10
1476.790133
 20
1908.741298
 30
0.0
 11
1476.790133
 21
1908.741298
 31
0.0
  0
LINE
  5
40E
330
3FA
100
AcDbEntity
  8
LC-002-002-----0
 62
     7
370
    25
100
AcDbLine
 10
1476.790133
 20
1908.741298
 30
0.0
 11
1477.229642
 21
1908.850712
 31
0.0
  0
LINE
  5
40F
330
3FA
100
AcDbEntity
  8
LC-002-002-----0
 62
     7
370
    25
100
AcDbLine
 10
1477.229642
 20
1908.850712
 30
0.0
 11
1477.229642
 21
1908.850712
 31
0.0
  0
LINE
  5
410
330
3FA
100
AcDbEntity
  8
LC-002-002-----0
 62
     7
370
    25
100
AcDbLine
 10
1477.229642
 20
1908.850712
 30
0.0
 11
1477.718529
 21
1908.942887
 31
0.0
  0
LINE
  5
411
330
3FA
100
AcDbEntity
  8
LC-002-002-----0
 62
     7
370
    25
100
AcDbLine
 10
1477.718529
 20
1908.942887
 30
0.0
 11
1477.718529
 21
1908.942887
 31
0.0
  0
LINE
  5
412
330
3FA
100
AcDbEntity
  8
LC-002-002-----0
 62
     7
370
    25
100
AcDbLine
 10
1477.718529
 20
1908.942887
 30
0.0
 11
1478.253002
 21
1909.017076
 31
0.0
  0
LINE
  5
413
330
3FA
100
AcDbEntity
  8
LC-002-002-----0
 62
     7
370
    25
100
AcDbLine
 10
1478.253002
 20
1909.017076
 30
0.0
 11
1478.253002
 21
1909.017076
 31
0.0
  0
LINE
  5
414
330
3FA
100
AcDbEntity
  8
LC-002-002-----0
 62
     7
370
    25
100
AcDbLine
 10
1478.253002
 20
1909.017076
 30
0.0
 11
1478.828008
 21
1909.073835
 31
0.0
  0
LINE
  5
415
330
3FA
100
AcDbEntity
  8
LC-002-002-----0
 62
     7
370
    25
100
AcDbLine
 10
1478.828008
 20
1909.073835
 30
0.0
 11
1478.828008
 21
1909.073835
 31
0.0
  0
LINE
  5
416
330
3FA
100
AcDbEntity
  8
LC-002-002-----0
 62
     7
370
    25
100
AcDbLine
 10
1478.828008
 20
1909.073835
 30
0.0
 11
1479.438434
 21
1909.115028
 31
0.0
  0
LINE
  5
417
330
3FA
100
AcDbEntity
  8
LC-002-002-----0
 62
     7
370
    25
100
AcDbLine
 10
1479.438434
 20
1909.115028
 30
0.0
 11
1479.438434
 21
1909.115028
 31
0.0
  0
LINE
  5
418
330
3FA
100
AcDbEntity
  8
LC-002-002-----0
 62
     7
370
    25
100
AcDbLine
 10
1479.438434
 20
1909.115028
 30
0.0
 11
1480.079343
 21
1909.143043
 31
0.0
  0
LINE
  5
419
330
3FA
100
AcDbEntity
  8
LC-002-002-----0
 62
     7
370
    25
100
AcDbLine
 10
1480.079343
 20
1909.143043
 30
0.0
 11
1480.079343
 21
1909.143043
 31
0.0
  0
LINE
  5
41A
330
3FA
100
AcDbEntity
  8
LC-002-002-----0
 62
     7
370
    25
100
AcDbLine
 10
1480.079343
 20
1909.143043
 30
0.0
 11
1480.745779
 21
1909.160854
 31
0.0
  0
LINE
  5
41B
330
3FA
100
AcDbEntity
  8
LC-002-002-----0
 62
     7
370
    25
100
AcDbLine
 10
1480.745779
 20
1909.160854
 30
0.0
 11
1480.745779
 21
1909.160854
 31
0.0
  0
LINE
  5
41C
330
3FA
100
AcDbEntity
  8
LC-002-002-----0
 62
     7
370
    25
100
AcDbLine
 10
1480.745779
 20
1909.160854
 30
0.0
 11
1481.432745
 21
1909.171424
 31
0.0
  0
LINE
  5
41D
330
3FA
100
AcDbEntity
  8
LC-002-002-----0
 62
     7
370
    25
100
AcDbLine
 10
1481.432745
 20
1909.171424
 30
0.0
 11
1481.432745
 21
1909.171424
 31
0.0
  0
LINE
  5
41E
330
3FA
100
AcDbEntity
  8
LC-002-002-----0
 62
     7
370
    25
100
AcDbLine
 10
1481.432745
 20
1909.171424
 30
0.0
 11
1482.135218
 21
1909.176487
 31
0.0
  0
LINE
  5
41F
330
3FA
100
AcDbEntity
  8
LC-002-002-----0
 62
     7
370
    25
100
AcDbLine
 10
1482.135218
 20
1909.176487
 30
0.0
 11
1482.135218
 21
1909.176487
 31
0.0
  0
LINE
  5
420
330
3FA
100
AcDbEntity
  8
LC-002-002-----0
 62
     7
370
    25
100
AcDbLine
 10
1482.135218
 20
1909.176487
 30
0.0
 11
1482.848047
 21
1909.177778
 31
0.0
  0
LINE
  5
421
330
3FA
100
AcDbEntity
  8
LC-002-002-----0
 62
     7
370
    25
100
AcDbLine
 10
1482.848047
 20
1909.177778
 30
0.0
 11
1482.848047
 21
1909.177778
 31
0.0
  0
LINE
  5
422
330
3FA
100
AcDbEntity
  8
LC-002-002-----0
 62
     7
370
    25
100
AcDbLine
 10
1482.848047
 20
1909.177778
 30
0.0
 11
1483.565919
 21
1909.176603
 31
0.0
  0
LINE
  5
423
330
3FA
100
AcDbEntity
  8
LC-002-002-----0
 62
     7
370
    25
100
AcDbLine
 10
1483.565919
 20
1909.176603
 30
0.0
 11
1483.565919
 21
1909.176603
 31
0.0
  0
LINE
  5
424
330
3FA
100
AcDbEntity
  8
LC-002-002-----0
 62
     7
370
    25
100
AcDbLine
 10
1483.565919
 20
1909.176603
 30
0.0
 11
1484.283342
 21
1909.171708
 31
0.0
  0
LINE
  5
425
330
3FA
100
AcDbEntity
  8
LC-002-002-----0
 62
     7
370
    25
100
AcDbLine
 10
1484.283342
 20
1909.171708
 30
0.0
 11
1484.283342
 21
1909.171708
 31
0.0
  0
LINE
  5
426
330
3FA
100
AcDbEntity
  8
LC-002-002-----0
 62
     7
370
    25
100
AcDbLine
 10
1484.283342
 20
1909.171708
 30
0.0
 11
1484.99468
 21
1909.161333
 31
0.0
  0
LINE
  5
427
330
3FA
100
AcDbEntity
  8
LC-002-002-----0
 62
     7
370
    25
100
AcDbLine
 10
1484.99468
 20
1909.161333
 30
0.0
 11
1484.99468
 21
1909.161333
 31
0.0
  0
LINE
  5
428
330
3FA
100
AcDbEntity
  8
LC-002-002-----0
 62
     7
370
    25
100
AcDbLine
 10
1484.99468
 20
1909.161333
 30
0.0
 11
1485.69415
 21
1909.143756
 31
0.0
  0
LINE
  5
429
330
3FA
100
AcDbEntity
  8
LC-002-002-----0
 62
     7
370
    25
100
AcDbLine
 10
1485.69415
 20
1909.143756
 30
0.0
 11
1485.69415
 21
1909.143756
 31
0.0
  0
LINE
  5
42A
330
3FA
100
AcDbEntity
  8
LC-002-002-----0
 62
     7
370
    25
100
AcDbLine
 10
1485.69415
 20
1909.143756
 30
0.0
 11
1486.375722
 21
1909.116061
 31
0.0
  0
LINE
  5
42B
330
3FA
100
AcDbEntity
  8
LC-002-002-----0
 62
     7
370
    25
100
AcDbLine
 10
1486.375722
 20
1909.116061
 30
0.0
 11
1486.375722
 21
1909.116061
 31
0.0
  0
LINE
  5
42C
330
3FA
100
AcDbEntity
  8
LC-002-002-----0
 62
     7
370
    25
100
AcDbLine
 10
1486.375722
 20
1909.116061
 30
0.0
 11
1487.033154
 21
1909.075266
 31
0.0
  0
LINE
  5
42D
330
3FA
100
AcDbEntity
  8
LC-002-002-----0
 62
     7
370
    25
100
AcDbLine
 10
1487.033154
 20
1909.075266
 30
0.0
 11
1487.033154
 21
1909.075266
 31
0.0
  0
LINE
  5
42E
330
3FA
100
AcDbEntity
  8
LC-002-002-----0
 62
     7
370
    25
100
AcDbLine
 10
1487.033154
 20
1909.075266
 30
0.0
 11
1487.659977
 21
1909.018903
 31
0.0
  0
LINE
  5
42F
330
3FA
100
AcDbEntity
  8
LC-002-002-----0
 62
     7
370
    25
100
AcDbLine
 10
1487.659977
 20
1909.018903
 30
0.0
 11
1487.659977
 21
1909.018903
 31
0.0
  0
LINE
  5
430
330
3FA
100
AcDbEntity
  8
LC-002-002-----0
 62
     7
370
    25
100
AcDbLine
 10
1487.659977
 20
1909.018903
 30
0.0
 11
1488.249338
 21
1908.945069
 31
0.0
  0
LINE
  5
431
330
3FA
100
AcDbEntity
  8
LC-002-002-----0
 62
     7
370
    25
100
AcDbLine
 10
1488.249338
 20
1908.945069
 30
0.0
 11
1488.249338
 21
1908.945069
 31
0.0
  0
LINE
  5
432
330
3FA
100
AcDbEntity
  8
LC-002-002-----0
 62
     7
370
    25
100
AcDbLine
 10
1488.249338
 20
1908.945069
 30
0.0
 11
1488.794237
 21
1908.853137
 31
0.0
  0
LINE
  5
433
330
3FA
100
AcDbEntity
  8
LC-002-002-----0
 62
     7
370
    25
100
AcDbLine
 10
1488.794237
 20
1908.853137
 30
0.0
 11
1488.794237
 21
1908.853137
 31
0.0
  0
LINE
  5
434
330
3FA
100
AcDbEntity
  8
LC-002-002-----0
 62
     7
370
    25
100
AcDbLine
 10
1488.794237
 20
1908.853137
 30
0.0
 11
1489.288865
 21
1908.743861
 31
0.0
  0
LINE
  5
435
330
3FA
100
AcDbEntity
  8
LC-002-002-----0
 62
     7
370
    25
100
AcDbLine
 10
1489.288865
 20
1908.743861
 30
0.0
 11
1489.288865
 21
1908.743861
 31
0.0
  0
LINE
  5
436
330
3FA
100
AcDbEntity
  8
LC-002-002-----0
 62
     7
370
    25
100
AcDbLine
 10
1489.288865
 20
1908.743861
 30
0.0
 11
1489.731524
 21
1908.618009
 31
0.0
  0
LINE
  5
437
330
3FA
100
AcDbEntity
  8
LC-002-002-----0
 62
     7
370
    25
100
AcDbLine
 10
1489.731524
 20
1908.618009
 30
0.0
 11
1489.731524
 21
1908.618009
 31
0.0
  0
LINE
  5
438
330
3FA
100
AcDbEntity
  8
LC-002-002-----0
 62
     7
370
    25
100
AcDbLine
 10
1489.731524
 20
1908.618009
 30
0.0
 11
1490.124887
 21
1908.47563
 31
0.0
  0
LINE
  5
439
330
3FA
100
AcDbEntity
  8
LC-002-002-----0
 62
     7
370
    25
100
AcDbLine
 10
1490.124887
 20
1908.47563
 30
0.0
 11
1490.124887
 21
1908.47563
 31
0.0
  0
LINE
  5
43A
330
3FA
100
AcDbEntity
  8
LC-002-002-----0
 62
     7
370
    25
100
AcDbLine
 10
1490.124887
 20
1908.47563
 30
0.0
 11
1490.473423
 21
1908.315196
 31
0.0
  0
LINE
  5
43B
330
3FA
100
AcDbEntity
  8
LC-002-002-----0
 62
     7
370
    25
100
AcDbLine
 10
1490.473423
 20
1908.315196
 30
0.0
 11
1490.473423
 21
1908.315196
 31
0.0
  0
LINE
  5
43C
330
3FA
100
AcDbEntity
  8
LC-002-002-----0
 62
     7
370
    25
100
AcDbLine
 10
1490.473423
 20
1908.315196
 30
0.0
 11
1490.77916
 21
1908.132744
 31
0.0
  0
LINE
  5
43D
330
3FA
100
AcDbEntity
  8
LC-002-002-----0
 62
     7
370
    25
100
AcDbLine
 10
1490.77916
 20
1908.132744
 30
0.0
 11
1490.77916
 21
1908.132744
 31
0.0
  0
LINE
  5
43E
330
3FA
100
AcDbEntity
  8
LC-002-002-----0
 62
     7
370
    25
100
AcDbLine
 10
1490.77916
 20
1908.132744
 30
0.0
 11
1491.041026
 21
1907.922829
 31
0.0
  0
LINE
  5
43F
330
3FA
100
AcDbEntity
  8
LC-002-002-----0
 62
     7
370
    25
100
AcDbLine
 10
1491.041026
 20
1907.922829
 30
0.0
 11
1491.041026
 21
1907.922829
 31
0.0
  0
LINE
  5
440
330
3FA
100
AcDbEntity
  8
LC-002-002-----0
 62
     7
370
    25
100
AcDbLine
 10
1491.041026
 20
1907.922829
 30
0.0
 11
1491.243556
 21
1907.685903
 31
0.0
  0
LINE
  5
441
330
3FA
100
AcDbEntity
  8
LC-002-002-----0
 62
     7
370
    25
100
AcDbLine
 10
1491.243556
 20
1907.685903
 30
0.0
 11
1491.243556
 21
1907.685903
 31
0.0
  0
LINE
  5
442
330
3FA
100
AcDbEntity
  8
LC-002-002-----0
 62
     7
370
    25
100
AcDbLine
 10
1491.243556
 20
1907.685903
 30
0.0
 11
1491.366918
 21
1907.434999
 31
0.0
  0
LINE
  5
443
330
3FA
100
AcDbEntity
  8
LC-002-002-----0
 62
     7
370
    25
100
AcDbLine
 10
1491.366918
 20
1907.434999
 30
0.0
 11
1491.366918
 21
1907.434999
 31
0.0
  0
LINE
  5
444
330
3FA
100
AcDbEntity
  8
LC-002-002-----0
 62
     7
370
    25
100
AcDbLine
 10
1491.366918
 20
1907.434999
 30
0.0
 11
1491.406577
 21
1907.187973
 31
0.0
  0
ENDBLK
  5
3FC
330
3FA
100
AcDbEntity
  8
0
100
AcDbBlockEnd
  0
BLOCK
  5
447
330
446
100
AcDbEntity
  8
0
100
AcDbBlockBegin
  2
POLY13
 70
     0
 71
     0
 10
0.0
 20
0.0
 30
0.0
  3
POLY13
  1

  4
POLY13
  0
LINE
  5
449
330
446
100
AcDbEntity
  8
LC-002-002-----0
 62
     7
370
    25
100
AcDbLine
 10
1509.151972
 20
1896.937973
 30
0.0
 11
1509.151972
 21
1896.937973
 31
0.0
  0
LINE
  5
44A
330
446
100
AcDbEntity
  8
LC-002-002-----0
 62
     7
370
    25
100
AcDbLine
 10
1509.151972
 20
1896.937973
 30
0.0
 11
1509.216935
 21
1897.113899
 31
0.0
  0
LINE
  5
44B
330
446
100
AcDbEntity
  8
LC-002-002-----0
 62
     7
370
    25
100
AcDbLine
 10
1509.216935
 20
1897.113899
 30
0.0
 11
1509.216935
 21
1897.113899
 31
0.0
  0
LINE
  5
44C
330
446
100
AcDbEntity
  8
LC-002-002-----0
 62
     7
370
    25
100
AcDbLine
 10
1509.216935
 20
1897.113899
 30
0.0
 11
1509.277954
 21
1897.280586
 31
0.0
  0
LINE
  5
44D
330
446
100
AcDbEntity
  8
LC-002-002-----0
 62
     7
370
    25
100
AcDbLine
 10
1509.277954
 20
1897.280586
 30
0.0
 11
1509.277954
 21
1897.280586
 31
0.0
  0
LINE
  5
44E
330
446
100
AcDbEntity
  8
LC-002-002-----0
 62
     7
370
    25
100
AcDbLine
 10
1509.277954
 20
1897.280586
 30
0.0
 11
1509.335094
 21
1897.437973
 31
0.0
  0
ENDBLK
  5
448
330
446
100
AcDbEntity
  8
0
100
AcDbBlockEnd
  0
BLOCK
  5
451
330
450
100
AcDbEntity
  8
0
100
AcDbBlockBegin
  2
POLY14
 70
     0
 71
     0
 10
0.0
 20
0.0
 30
0.0
  3
POLY14
  1

  4
POLY14
  0
LINE
  5
453
330
450
100
AcDbEntity
  8
LC-002-002-----0
 62
     7
370
    25
100
AcDbLine
 10
1507.534483
 20
1897.437973
 30
0.0
 11
1507.534483
 21
1897.437973
 31
0.0
  0
LINE
  5
454
330
450
100
AcDbEntity
  8
LC-002-002-----0
 62
     7
370
    25
100
AcDbLine
 10
1507.534483
 20
1897.437973
 30
0.0
 11
1507.929092
 21
1897.280601
 31
0.0
  0
LINE
  5
455
330
450
100
AcDbEntity
  8
LC-002-002-----0
 62
     7
370
    25
100
AcDbLine
 10
1507.929092
 20
1897.280601
 30
0.0
 11
1507.929092
 21
1897.280601
 31
0.0
  0
LINE
  5
456
330
450
100
AcDbEntity
  8
LC-002-002-----0
 62
     7
370
    25
100
AcDbLine
 10
1507.929092
 20
1897.280601
 30
0.0
 11
1508.324894
 21
1897.113914
 31
0.0
  0
LINE
  5
457
330
450
100
AcDbEntity
  8
LC-002-002-----0
 62
     7
370
    25
100
AcDbLine
 10
1508.324894
 20
1897.113914
 30
0.0
 11
1508.324894
 21
1897.113914
 31
0.0
  0
LINE
  5
458
330
450
100
AcDbEntity
  8
LC-002-002-----0
 62
     7
370
    25
100
AcDbLine
 10
1508.324894
 20
1897.113914
 30
0.0
 11
1508.72173
 21
1896.937973
 31
0.0
  0
ENDBLK
  5
452
330
450
100
AcDbEntity
  8
0
100
AcDbBlockEnd
  0
BLOCK
  5
45B
330
45A
100
AcDbEntity
  8
0
100
AcDbBlockBegin
  2
POLY15
 70
     0
 71
     0
 10
0.0
 20
0.0
 30
0.0
  3
POLY15
  1

  4
POLY15
  0
LINE
  5
45D
330
45A
100
AcDbEntity
  8
LC-002-002-----0
 62
     7
370
    25
100
AcDbLine
 10
1492.267331
 20
1896.937973
 30
0.0
 11
1492.267331
 21
1896.937973
 31
0.0
  0
LINE
  5
45E
330
45A
100
AcDbEntity
  8
LC-002-002-----0
 62
     7
370
    25
100
AcDbLine
 10
1492.267331
 20
1896.937973
 30
0.0
 11
1492.729193
 21
1897.113925
 31
0.0
  0
LINE
  5
45F
330
45A
100
AcDbEntity
  8
LC-002-002-----0
 62
     7
370
    25
100
AcDbLine
 10
1492.729193
 20
1897.113925
 30
0.0
 11
1492.729193
 21
1897.113925
 31
0.0
  0
LINE
  5
460
330
45A
100
AcDbEntity
  8
LC-002-002-----0
 62
     7
370
    25
100
AcDbLine
 10
1492.729193
 20
1897.113925
 30
0.0
 11
1493.186048
 21
1897.280611
 31
0.0
  0
LINE
  5
461
330
45A
100
AcDbEntity
  8
LC-002-002-----0
 62
     7
370
    25
100
AcDbLine
 10
1493.186048
 20
1897.280611
 30
0.0
 11
1493.186048
 21
1897.280611
 31
0.0
  0
LINE
  5
462
330
45A
100
AcDbEntity
  8
LC-002-002-----0
 62
     7
370
    25
100
AcDbLine
 10
1493.186048
 20
1897.280611
 30
0.0
 11
1493.637799
 21
1897.437973
 31
0.0
  0
ENDBLK
  5
45C
330
45A
100
AcDbEntity
  8
0
100
AcDbBlockEnd
  0
BLOCK
  5
465
330
464
100
AcDbEntity
  8
0
100
AcDbBlockBegin
  2
POLY16
 70
     0
 71
     0
 10
0.0
 20
0.0
 30
0.0
  3
POLY16
  1

  4
POLY16
  0
LINE
  5
467
330
464
100
AcDbEntity
  8
LC-002-002-----0
 62
     7
370
    25
100
AcDbLine
 10
1508.72173
 20
1907.187973
 30
0.0
 11
1508.72173
 21
1907.187973
 31
0.0
  0
LINE
  5
468
330
464
100
AcDbEntity
  8
LC-002-002-----0
 62
     7
370
    25
100
AcDbLine
 10
1508.72173
 20
1907.187973
 30
0.0
 11
1508.687878
 21
1907.434649
 31
0.0
  0
LINE
  5
469
330
464
100
AcDbEntity
  8
LC-002-002-----0
 62
     7
370
    25
100
AcDbLine
 10
1508.687878
 20
1907.434649
 30
0.0
 11
1508.687878
 21
1907.434649
 31
0.0
  0
LINE
  5
46A
330
464
100
AcDbEntity
  8
LC-002-002-----0
 62
     7
370
    25
100
AcDbLine
 10
1508.687878
 20
1907.434649
 30
0.0
 11
1508.582688
 21
1907.684803
 31
0.0
  0
LINE
  5
46B
330
464
100
AcDbEntity
  8
LC-002-002-----0
 62
     7
370
    25
100
AcDbLine
 10
1508.582688
 20
1907.684803
 30
0.0
 11
1508.582688
 21
1907.684803
 31
0.0
  0
LINE
  5
46C
330
464
100
AcDbEntity
  8
LC-002-002-----0
 62
     7
370
    25
100
AcDbLine
 10
1508.582688
 20
1907.684803
 30
0.0
 11
1508.409471
 21
1907.92105
 31
0.0
  0
LINE
  5
46D
330
464
100
AcDbEntity
  8
LC-002-002-----0
 62
     7
370
    25
100
AcDbLine
 10
1508.409471
 20
1907.92105
 30
0.0
 11
1508.409471
 21
1907.92105
 31
0.0
  0
LINE
  5
46E
330
464
100
AcDbEntity
  8
LC-002-002-----0
 62
     7
370
    25
100
AcDbLine
 10
1508.409471
 20
1907.92105
 30
0.0
 11
1508.184489
 21
1908.130617
 31
0.0
  0
LINE
  5
46F
330
464
100
AcDbEntity
  8
LC-002-002-----0
 62
     7
370
    25
100
AcDbLine
 10
1508.184489
 20
1908.130617
 30
0.0
 11
1508.184489
 21
1908.130617
 31
0.0
  0
LINE
  5
470
330
464
100
AcDbEntity
  8
LC-002-002-----0
 62
     7
370
    25
100
AcDbLine
 10
1508.184489
 20
1908.130617
 30
0.0
 11
1507.920458
 21
1908.312855
 31
0.0
  0
LINE
  5
471
330
464
100
AcDbEntity
  8
LC-002-002-----0
 62
     7
370
    25
100
AcDbLine
 10
1507.920458
 20
1908.312855
 30
0.0
 11
1507.920458
 21
1908.312855
 31
0.0
  0
LINE
  5
472
330
464
100
AcDbEntity
  8
LC-002-002-----0
 62
     7
370
    25
100
AcDbLine
 10
1507.920458
 20
1908.312855
 30
0.0
 11
1507.617679
 21
1908.473106
 31
0.0
  0
LINE
  5
473
330
464
100
AcDbEntity
  8
LC-002-002-----0
 62
     7
370
    25
100
AcDbLine
 10
1507.617679
 20
1908.473106
 30
0.0
 11
1507.617679
 21
1908.473106
 31
0.0
  0
LINE
  5
474
330
464
100
AcDbEntity
  8
LC-002-002-----0
 62
     7
370
    25
100
AcDbLine
 10
1507.617679
 20
1908.473106
 30
0.0
 11
1507.273727
 21
1908.615417
 31
0.0
  0
LINE
  5
475
330
464
100
AcDbEntity
  8
LC-002-002-----0
 62
     7
370
    25
100
AcDbLine
 10
1507.273727
 20
1908.615417
 30
0.0
 11
1507.273727
 21
1908.615417
 31
0.0
  0
LINE
  5
476
330
464
100
AcDbEntity
  8
LC-002-002-----0
 62
     7
370
    25
100
AcDbLine
 10
1507.273727
 20
1908.615417
 30
0.0
 11
1506.883775
 21
1908.741298
 31
0.0
  0
LINE
  5
477
330
464
100
AcDbEntity
  8
LC-002-002-----0
 62
     7
370
    25
100
AcDbLine
 10
1506.883775
 20
1908.741298
 30
0.0
 11
1506.883775
 21
1908.741298
 31
0.0
  0
LINE
  5
478
330
464
100
AcDbEntity
  8
LC-002-002-----0
 62
     7
370
    25
100
AcDbLine
 10
1506.883775
 20
1908.741298
 30
0.0
 11
1506.444266
 21
1908.850712
 31
0.0
  0
LINE
  5
479
330
464
100
AcDbEntity
  8
LC-002-002-----0
 62
     7
370
    25
100
AcDbLine
 10
1506.444266
 20
1908.850712
 30
0.0
 11
1506.444266
 21
1908.850712
 31
0.0
  0
LINE
  5
47A
330
464
100
AcDbEntity
  8
LC-002-002-----0
 62
     7
370
    25
100
AcDbLine
 10
1506.444266
 20
1908.850712
 30
0.0
 11
1505.955379
 21
1908.942887
 31
0.0
  0
LINE
  5
47B
330
464
100
AcDbEntity
  8
LC-002-002-----0
 62
     7
370
    25
100
AcDbLine
 10
1505.955379
 20
1908.942887
 30
0.0
 11
1505.955379
 21
1908.942887
 31
0.0
  0
LINE
  5
47C
330
464
100
AcDbEntity
  8
LC-002-002-----0
 62
     7
370
    25
100
AcDbLine
 10
1505.955379
 20
1908.942887
 30
0.0
 11
1505.420905
 21
1909.017076
 31
0.0
  0
LINE
  5
47D
330
464
100
AcDbEntity
  8
LC-002-002-----0
 62
     7
370
    25
100
AcDbLine
 10
1505.420905
 20
1909.017076
 30
0.0
 11
1505.420905
 21
1909.017076
 31
0.0
  0
LINE
  5
47E
330
464
100
AcDbEntity
  8
LC-002-002-----0
 62
     7
370
    25
100
AcDbLine
 10
1505.420905
 20
1909.017076
 30
0.0
 11
1504.8459
 21
1909.073835
 31
0.0
  0
LINE
  5
47F
330
464
100
AcDbEntity
  8
LC-002-002-----0
 62
     7
370
    25
100
AcDbLine
 10
1504.8459
 20
1909.073835
 30
0.0
 11
1504.8459
 21
1909.073835
 31
0.0
  0
LINE
  5
480
330
464
100
AcDbEntity
  8
LC-002-002-----0
 62
     7
370
    25
100
AcDbLine
 10
1504.8459
 20
1909.073835
 30
0.0
 11
1504.235474
 21
1909.115028
 31
0.0
  0
LINE
  5
481
330
464
100
AcDbEntity
  8
LC-002-002-----0
 62
     7
370
    25
100
AcDbLine
 10
1504.235474
 20
1909.115028
 30
0.0
 11
1504.235474
 21
1909.115028
 31
0.0
  0
LINE
  5
482
330
464
100
AcDbEntity
  8
LC-002-002-----0
 62
     7
370
    25
100
AcDbLine
 10
1504.235474
 20
1909.115028
 30
0.0
 11
1503.594565
 21
1909.143043
 31
0.0
  0
LINE
  5
483
330
464
100
AcDbEntity
  8
LC-002-002-----0
 62
     7
370
    25
100
AcDbLine
 10
1503.594565
 20
1909.143043
 30
0.0
 11
1503.594565
 21
1909.143043
 31
0.0
  0
LINE
  5
484
330
464
100
AcDbEntity
  8
LC-002-002-----0
 62
     7
370
    25
100
AcDbLine
 10
1503.594565
 20
1909.143043
 30
0.0
 11
1502.928129
 21
1909.160854
 31
0.0
  0
LINE
  5
485
330
464
100
AcDbEntity
  8
LC-002-002-----0
 62
     7
370
    25
100
AcDbLine
 10
1502.928129
 20
1909.160854
 30
0.0
 11
1502.928129
 21
1909.160854
 31
0.0
  0
LINE
  5
486
330
464
100
AcDbEntity
  8
LC-002-002-----0
 62
     7
370
    25
100
AcDbLine
 10
1502.928129
 20
1909.160854
 30
0.0
 11
1502.241163
 21
1909.171424
 31
0.0
  0
LINE
  5
487
330
464
100
AcDbEntity
  8
LC-002-002-----0
 62
     7
370
    25
100
AcDbLine
 10
1502.241163
 20
1909.171424
 30
0.0
 11
1502.241163
 21
1909.171424
 31
0.0
  0
LINE
  5
488
330
464
100
AcDbEntity
  8
LC-002-002-----0
 62
     7
370
    25
100
AcDbLine
 10
1502.241163
 20
1909.171424
 30
0.0
 11
1501.538689
 21
1909.176487
 31
0.0
  0
LINE
  5
489
330
464
100
AcDbEntity
  8
LC-002-002-----0
 62
     7
370
    25
100
AcDbLine
 10
1501.538689
 20
1909.176487
 30
0.0
 11
1501.538689
 21
1909.176487
 31
0.0
  0
LINE
  5
48A
330
464
100
AcDbEntity
  8
LC-002-002-----0
 62
     7
370
    25
100
AcDbLine
 10
1501.538689
 20
1909.176487
 30
0.0
 11
1500.82586
 21
1909.177778
 31
0.0
  0
LINE
  5
48B
330
464
100
AcDbEntity
  8
LC-002-002-----0
 62
     7
370
    25
100
AcDbLine
 10
1500.82586
 20
1909.177778
 30
0.0
 11
1500.82586
 21
1909.177778
 31
0.0
  0
LINE
  5
48C
330
464
100
AcDbEntity
  8
LC-002-002-----0
 62
     7
370
    25
100
AcDbLine
 10
1500.82586
 20
1909.177778
 30
0.0
 11
1500.107989
 21
1909.176603
 31
0.0
  0
LINE
  5
48D
330
464
100
AcDbEntity
  8
LC-002-002-----0
 62
     7
370
    25
100
AcDbLine
 10
1500.107989
 20
1909.176603
 30
0.0
 11
1500.107989
 21
1909.176603
 31
0.0
  0
LINE
  5
48E
330
464
100
AcDbEntity
  8
LC-002-002-----0
 62
     7
370
    25
100
AcDbLine
 10
1500.107989
 20
1909.176603
 30
0.0
 11
1499.390566
 21
1909.171708
 31
0.0
  0
LINE
  5
48F
330
464
100
AcDbEntity
  8
LC-002-002-----0
 62
     7
370
    25
100
AcDbLine
 10
1499.390566
 20
1909.171708
 30
0.0
 11
1499.390566
 21
1909.171708
 31
0.0
  0
LINE
  5
490
330
464
100
AcDbEntity
  8
LC-002-002-----0
 62
     7
370
    25
100
AcDbLine
 10
1499.390566
 20
1909.171708
 30
0.0
 11
1498.679228
 21
1909.161333
 31
0.0
  0
LINE
  5
491
330
464
100
AcDbEntity
  8
LC-002-002-----0
 62
     7
370
    25
100
AcDbLine
 10
1498.679228
 20
1909.161333
 30
0.0
 11
1498.679228
 21
1909.161333
 31
0.0
  0
LINE
  5
492
330
464
100
AcDbEntity
  8
LC-002-002-----0
 62
     7
370
    25
100
AcDbLine
 10
1498.679228
 20
1909.161333
 30
0.0
 11
1497.979758
 21
1909.143756
 31
0.0
  0
LINE
  5
493
330
464
100
AcDbEntity
  8
LC-002-002-----0
 62
     7
370
    25
100
AcDbLine
 10
1497.979758
 20
1909.143756
 30
0.0
 11
1497.979758
 21
1909.143756
 31
0.0
  0
LINE
  5
494
330
464
100
AcDbEntity
  8
LC-002-002-----0
 62
     7
370
    25
100
AcDbLine
 10
1497.979758
 20
1909.143756
 30
0.0
 11
1497.298185
 21
1909.116061
 31
0.0
  0
LINE
  5
495
330
464
100
AcDbEntity
  8
LC-002-002-----0
 62
     7
370
    25
100
AcDbLine
 10
1497.298185
 20
1909.116061
 30
0.0
 11
1497.298185
 21
1909.116061
 31
0.0
  0
LINE
  5
496
330
464
100
AcDbEntity
  8
LC-002-002-----0
 62
     7
370
    25
100
AcDbLine
 10
1497.298185
 20
1909.116061
 30
0.0
 11
1496.640754
 21
1909.075266
 31
0.0
  0
LINE
  5
497
330
464
100
AcDbEntity
  8
LC-002-002-----0
 62
     7
370
    25
100
AcDbLine
 10
1496.640754
 20
1909.075266
 30
0.0
 11
1496.640754
 21
1909.075266
 31
0.0
  0
LINE
  5
498
330
464
100
AcDbEntity
  8
LC-002-002-----0
 62
     7
370
    25
100
AcDbLine
 10
1496.640754
 20
1909.075266
 30
0.0
 11
1496.01393
 21
1909.018903
 31
0.0
  0
LINE
  5
499
330
464
100
AcDbEntity
  8
LC-002-002-----0
 62
     7
370
    25
100
AcDbLine
 10
1496.01393
 20
1909.018903
 30
0.0
 11
1496.01393
 21
1909.018903
 31
0.0
  0
LINE
  5
49A
330
464
100
AcDbEntity
  8
LC-002-002-----0
 62
     7
370
    25
100
AcDbLine
 10
1496.01393
 20
1909.018903
 30
0.0
 11
1495.424569
 21
1908.945069
 31
0.0
  0
LINE
  5
49B
330
464
100
AcDbEntity
  8
LC-002-002-----0
 62
     7
370
    25
100
AcDbLine
 10
1495.424569
 20
1908.945069
 30
0.0
 11
1495.424569
 21
1908.945069
 31
0.0
  0
LINE
  5
49C
330
464
100
AcDbEntity
  8
LC-002-002-----0
 62
     7
370
    25
100
AcDbLine
 10
1495.424569
 20
1908.945069
 30
0.0
 11
1494.87967
 21
1908.853137
 31
0.0
  0
LINE
  5
49D
330
464
100
AcDbEntity
  8
LC-002-002-----0
 62
     7
370
    25
100
AcDbLine
 10
1494.87967
 20
1908.853137
 30
0.0
 11
1494.87967
 21
1908.853137
 31
0.0
  0
LINE
  5
49E
330
464
100
AcDbEntity
  8
LC-002-002-----0
 62
     7
370
    25
100
AcDbLine
 10
1494.87967
 20
1908.853137
 30
0.0
 11
1494.385043
 21
1908.743861
 31
0.0
  0
LINE
  5
49F
330
464
100
AcDbEntity
  8
LC-002-002-----0
 62
     7
370
    25
100
AcDbLine
 10
1494.385043
 20
1908.743861
 30
0.0
 11
1494.385043
 21
1908.743861
 31
0.0
  0
LINE
  5
4A0
330
464
100
AcDbEntity
  8
LC-002-002-----0
 62
     7
370
    25
100
AcDbLine
 10
1494.385043
 20
1908.743861
 30
0.0
 11
1493.942384
 21
1908.618009
 31
0.0
  0
LINE
  5
4A1
330
464
100
AcDbEntity
  8
LC-002-002-----0
 62
     7
370
    25
100
AcDbLine
 10
1493.942384
 20
1908.618009
 30
0.0
 11
1493.942384
 21
1908.618009
 31
0.0
  0
LINE
  5
4A2
330
464
100
AcDbEntity
  8
LC-002-002-----0
 62
     7
370
    25
100
AcDbLine
 10
1493.942384
 20
1908.618009
 30
0.0
 11
1493.54902
 21
1908.47563
 31
0.0
  0
LINE
  5
4A3
330
464
100
AcDbEntity
  8
LC-002-002-----0
 62
     7
370
    25
100
AcDbLine
 10
1493.54902
 20
1908.47563
 30
0.0
 11
1493.54902
 21
1908.47563
 31
0.0
  0
LINE
  5
4A4
330
464
100
AcDbEntity
  8
LC-002-002-----0
 62
     7
370
    25
100
AcDbLine
 10
1493.54902
 20
1908.47563
 30
0.0
 11
1493.200485
 21
1908.315196
 31
0.0
  0
LINE
  5
4A5
330
464
100
AcDbEntity
  8
LC-002-002-----0
 62
     7
370
    25
100
AcDbLine
 10
1493.200485
 20
1908.315196
 30
0.0
 11
1493.200485
 21
1908.315196
 31
0.0
  0
LINE
  5
4A6
330
464
100
AcDbEntity
  8
LC-002-002-----0
 62
     7
370
    25
100
AcDbLine
 10
1493.200485
 20
1908.315196
 30
0.0
 11
1492.894748
 21
1908.132744
 31
0.0
  0
LINE
  5
4A7
330
464
100
AcDbEntity
  8
LC-002-002-----0
 62
     7
370
    25
100
AcDbLine
 10
1492.894748
 20
1908.132744
 30
0.0
 11
1492.894748
 21
1908.132744
 31
0.0
  0
LINE
  5
4A8
330
464
100
AcDbEntity
  8
LC-002-002-----0
 62
     7
370
    25
100
AcDbLine
 10
1492.894748
 20
1908.132744
 30
0.0
 11
1492.632882
 21
1907.922829
 31
0.0
  0
LINE
  5
4A9
330
464
100
AcDbEntity
  8
LC-002-002-----0
 62
     7
370
    25
100
AcDbLine
 10
1492.632882
 20
1907.922829
 30
0.0
 11
1492.632882
 21
1907.922829
 31
0.0
  0
LINE
  5
4AA
330
464
100
AcDbEntity
  8
LC-002-002-----0
 62
     7
370
    25
100
AcDbLine
 10
1492.632882
 20
1907.922829
 30
0.0
 11
1492.430352
 21
1907.685903
 31
0.0
  0
LINE
  5
4AB
330
464
100
AcDbEntity
  8
LC-002-002-----0
 62
     7
370
    25
100
AcDbLine
 10
1492.430352
 20
1907.685903
 30
0.0
 11
1492.430352
 21
1907.685903
 31
0.0
  0
LINE
  5
4AC
330
464
100
AcDbEntity
  8
LC-002-002-----0
 62
     7
370
    25
100
AcDbLine
 10
1492.430352
 20
1907.685903
 30
0.0
 11
1492.306989
 21
1907.434999
 31
0.0
  0
LINE
  5
4AD
330
464
100
AcDbEntity
  8
LC-002-002-----0
 62
     7
370
    25
100
AcDbLine
 10
1492.306989
 20
1907.434999
 30
0.0
 11
1492.306989
 21
1907.434999
 31
0.0
  0
LINE
  5
4AE
330
464
100
AcDbEntity
  8
LC-002-002-----0
 62
     7
370
    25
100
AcDbLine
 10
1492.306989
 20
1907.434999
 30
0.0
 11
1492.267331
 21
1907.187973
 31
0.0
  0
ENDBLK
  5
466
330
464
100
AcDbEntity
  8
0
100
AcDbBlockEnd
  0
BLOCK
  5
4EA
330
4E9
100
AcDbEntity
  8
0
100
AcDbBlockBegin
  2
LCDIM8
 70
     0
 71
     0
 10
0.0
 20
0.0
 30
0.0
  3
LCDIM8
  1

  4
LCDIM8
  0
LINE
  5
4EC
330
4E9
100
AcDbEntity
  8
LC-008-003-MTH-0
 62
     7
370
    25
100
AcDbLine
 10
539.496697
 20
867.790569
 30
0.0
 11
539.496697
 21
735.0
 31
0.0
  0
LINE
  5
4ED
330
4E9
100
AcDbEntity
  8
LC-008-003-MTH-0
 62
     7
370
    25
100
AcDbLine
 10
988.255558
 20
867.790569
 30
0.0
 11
988.255558
 21
735.0
 31
0.0
  0
LINE
  5
4EE
330
4E9
100
AcDbEntity
  8
LC-007-003-MTG-0
 62
     7
370
    25
100
AcDbLine
 10
539.496697
 20
750.0
 30
0.0
 11
988.255558
 21
750.0
 31
0.0
  0
LINE
  5
4EF
330
4E9
100
AcDbEntity
  8
LC-006-003-----0
 62
     7
370
    25
100
AcDbLine
 10
564.282818
 20
753.263155
 30
0.0
 11
539.496697
 21
750.0
 31
0.0
  0
LINE
  5
4F0
330
4E9
100
AcDbEntity
  8
LC-006-003-----0
 62
     7
370
    25
100
AcDbLine
 10
539.496697
 20
750.0
 30
0.0
 11
564.282818
 21
746.736845
 31
0.0
  0
LINE
  5
4F1
330
4E9
100
AcDbEntity
  8
LC-006-003-----0
 62
     7
370
    25
100
AcDbLine
 10
564.282818
 20
746.736845
 30
0.0
 11
564.282818
 21
753.263155
 31
0.0
  0
LINE
  5
4F2
330
4E9
100
AcDbEntity
  8
LC-006-003-----0
 62
     7
370
    25
100
AcDbLine
 10
564.338427
 20
752.414735
 30
0.0
 11
545.996697
 21
750.0
 31
0.0
  0
LINE
  5
4F3
330
4E9
100
AcDbEntity
  8
LC-006-003-----0
 62
     7
370
    25
100
AcDbLine
 10
545.996697
 20
750.0
 30
0.0
 11
564.338427
 21
747.585265
 31
0.0
  0
LINE
  5
4F4
330
4E9
100
AcDbEntity
  8
LC-006-003-----0
 62
     7
370
    25
100
AcDbLine
 10
564.394035
 20
751.566314
 30
0.0
 11
552.496697
 21
750.0
 31
0.0
  0
LINE
  5
4F5
330
4E9
100
AcDbEntity
  8
LC-006-003-----0
 62
     7
370
    25
100
AcDbLine
 10
552.496697
 20
750.0
 30
0.0
 11
564.394035
 21
748.433686
 31
0.0
  0
LINE
  5
4F6
330
4E9
100
AcDbEntity
  8
LC-006-003-----0
 62
     7
370
    25
100
AcDbLine
 10
564.449644
 20
750.717894
 30
0.0
 11
558.996697
 21
750.0
 31
0.0
  0
LINE
  5
4F7
330
4E9
100
AcDbEntity
  8
LC-006-003-----0
 62
     7
370
    25
100
AcDbLine
 10
558.996697
 20
750.0
 30
0.0
 11
564.449644
 21
749.282106
 31
0.0
  0
LINE
  5
4F8
330
4E9
100
AcDbEntity
  8
LC-006-003-----0
 62
     7
370
    25
100
AcDbLine
 10
963.469436
 20
746.736845
 30
0.0
 11
988.255558
 21
750.0
 31
0.0
  0
LINE
  5
4F9
330
4E9
100
AcDbEntity
  8
LC-006-003-----0
 62
     7
370
    25
100
AcDbLine
 10
988.255558
 20
750.0
 30
0.0
 11
963.469436
 21
753.263155
 31
0.0
  0
LINE
  5
4FA
330
4E9
100
AcDbEntity
  8
LC-006-003-----0
 62
     7
370
    25
100
AcDbLine
 10
963.469436
 20
753.263155
 30
0.0
 11
963.469436
 21
746.736845
 31
0.0
  0
LINE
  5
4FB
330
4E9
100
AcDbEntity
  8
LC-006-003-----0
 62
     7
370
    25
100
AcDbLine
 10
963.413828
 20
747.585265
 30
0.0
 11
981.755558
 21
750.0
 31
0.0
  0
LINE
  5
4FC
330
4E9
100
AcDbEntity
  8
LC-006-003-----0
 62
     7
370
    25
100
AcDbLine
 10
981.755558
 20
750.0
 30
0.0
 11
963.413828
 21
752.414735
 31
0.0
  0
LINE
  5
4FD
330
4E9
100
AcDbEntity
  8
LC-006-003-----0
 62
     7
370
    25
100
AcDbLine
 10
963.35822
 20
748.433686
 30
0.0
 11
975.255558
 21
750.0
 31
0.0
  0
LINE
  5
4FE
330
4E9
100
AcDbEntity
  8
LC-006-003-----0
 62
     7
370
    25
100
AcDbLine
 10
975.255558
 20
750.0
 30
0.0
 11
963.35822
 21
751.566314
 31
0.0
  0
LINE
  5
4FF
330
4E9
100
AcDbEntity
  8
LC-006-003-----0
 62
     7
370
    25
100
AcDbLine
 10
963.302611
 20
749.282106
 30
0.0
 11
968.755558
 21
750.0
 31
0.0
  0
LINE
  5
500
330
4E9
100
AcDbEntity
  8
LC-006-003-----0
 62
     7
370
    25
100
AcDbLine
 10
968.755558
 20
750.0
 30
0.0
 11
963.302611
 21
750.717894
 31
0.0
  0
TEXT
  5
501
330
4E9
100
AcDbEntity
  8
LC-006-003-----0
 62
     7
370
    25
100
AcDbText
 10
737.576764
 20
765.0
 30
0.0
 40
25.0
  1
449
 41
0.7
  7
LCTX0-400-0-0pDIN-Schrift
 72
     1
 11
762.160097
 21
765.0
 31
0.0
100
AcDbText
  0
ENDBLK
  5
4EB
330
4E9
100
AcDbEntity
  8
0
100
AcDbBlockEnd
  0
BLOCK
  5
504
330
503
100
AcDbEntity
  8
0
100
AcDbBlockBegin
  2
LCDIM9
 70
     0
 71
     0
 10
0.0
 20
0.0
 30
0.0
  3
LCDIM9
  1

  4
LCDIM9
  0
LINE
  5
506
330
503
100
AcDbEntity
  8
LC-008-003-MTH-0
 62
     7
370
    25
100
AcDbLine
 10
968.255558
 20
847.790569
 30
0.0
 11
1115.0
 21
847.790569
 31
0.0
  0
LINE
  5
507
330
503
100
AcDbEntity
  8
LC-008-003-MTH-0
 62
     7
370
    25
100
AcDbLine
 10
968.255558
 20
1172.549431
 30
0.0
 11
1115.0
 21
1172.549431
 31
0.0
  0
LINE
  5
508
330
503
100
AcDbEntity
  8
LC-007-003-MTG-0
 62
     7
370
    25
100
AcDbLine
 10
1100.0
 20
847.790569
 30
0.0
 11
1100.0
 21
1172.549431
 31
0.0
  0
LINE
  5
509
330
503
100
AcDbEntity
  8
LC-006-003-----0
 62
     7
370
    25
100
AcDbLine
 10
1096.736845
 20
872.576691
 30
0.0
 11
1100.0
 21
847.790569
 31
0.0
  0
LINE
  5
50A
330
503
100
AcDbEntity
  8
LC-006-003-----0
 62
     7
370
    25
100
AcDbLine
 10
1100.0
 20
847.790569
 30
0.0
 11
1103.263155
 21
872.576691
 31
0.0
  0
LINE
  5
50B
330
503
100
AcDbEntity
  8
LC-006-003-----0
 62
     7
370
    25
100
AcDbLine
 10
1103.263155
 20
872.576691
 30
0.0
 11
1096.736845
 21
872.576691
 31
0.0
  0
LINE
  5
50C
330
503
100
AcDbEntity
  8
LC-006-003-----0
 62
     7
370
    25
100
AcDbLine
 10
1097.585265
 20
872.632299
 30
0.0
 11
1100.0
 21
854.290569
 31
0.0
  0
LINE
  5
50D
330
503
100
AcDbEntity
  8
LC-006-003-----0
 62
     7
370
    25
100
AcDbLine
 10
1100.0
 20
854.290569
 30
0.0
 11
1102.414735
 21
872.632299
 31
0.0
  0
LINE
  5
50E
330
503
100
AcDbEntity
  8
LC-006-003-----0
 62
     7
370
    25
100
AcDbLine
 10
1098.433686
 20
872.687908
 30
0.0
 11
1100.0
 21
860.790569
 31
0.0
  0
LINE
  5
50F
330
503
100
AcDbEntity
  8
LC-006-003-----0
 62
     7
370
    25
100
AcDbLine
 10
1100.0
 20
860.790569
 30
0.0
 11
1101.566314
 21
872.687908
 31
0.0
  0
LINE
  5
510
330
503
100
AcDbEntity
  8
LC-006-003-----0
 62
     7
370
    25
100
AcDbLine
 10
1099.282106
 20
872.743516
 30
0.0
 11
1100.0
 21
867.290569
 31
0.0
  0
LINE
  5
511
330
503
100
AcDbEntity
  8
LC-006-003-----0
 62
     7
370
    25
100
AcDbLine
 10
1100.0
 20
867.290569
 30
0.0
 11
1100.717894
 21
872.743516
 31
0.0
  0
LINE
  5
512
330
503
100
AcDbEntity
  8
LC-006-003-----0
 62
     7
370
    25
100
AcDbLine
 10
1103.263155
 20
1147.763309
 30
0.0
 11
1100.0
 21
1172.549431
 31
0.0
  0
LINE
  5
513
330
503
100
AcDbEntity
  8
LC-006-003-----0
 62
     7
370
    25
100
AcDbLine
 10
1100.0
 20
1172.549431
 30
0.0
 11
1096.736845
 21
1147.763309
 31
0.0
  0
LINE
  5
514
330
503
100
AcDbEntity
  8
LC-006-003-----0
 62
     7
370
    25
100
AcDbLine
 10
1096.736845
 20
1147.763309
 30
0.0
 11
1103.263155
 21
1147.763309
 31
0.0
  0
LINE
  5
515
330
503
100
AcDbEntity
  8
LC-006-003-----0
 62
     7
370
    25
100
AcDbLine
 10
1102.414735
 20
1147.707701
 30
0.0
 11
1100.0
 21
1166.049431
 31
0.0
  0
LINE
  5
516
330
503
100
AcDbEntity
  8
LC-006-003-----0
 62
     7
370
    25
100
AcDbLine
 10
1100.0
 20
1166.049431
 30
0.0
 11
1097.585265
 21
1147.707701
 31
0.0
  0
LINE
  5
517
330
503
100
AcDbEntity
  8
LC-006-003-----0
 62
     7
370
    25
100
AcDbLine
 10
1101.566314
 20
1147.652092
 30
0.0
 11
1100.0
 21
1159.549431
 31
0.0
  0
LINE
  5
518
330
503
100
AcDbEntity
  8
LC-006-003-----0
 62
     7
370
    25
100
AcDbLine
 10
1100.0
 20
1159.549431
 30
0.0
 11
1098.433686
 21
1147.652092
 31
0.0
  0
LINE
  5
519
330
503
100
AcDbEntity
  8
LC-006-003-----0
 62
     7
370
    25
100
AcDbLine
 10
1100.717894
 20
1147.596484
 30
0.0
 11
1100.0
 21
1153.049431
 31
0.0
  0
LINE
  5
51A
330
503
100
AcDbEntity
  8
LC-006-003-----0
 62
     7
370
    25
100
AcDbLine
 10
1100.0
 20
1153.049431
 30
0.0
 11
1099.282106
 21
1147.596484
 31
0.0
  0
TEXT
  5
51B
330
503
100
AcDbEntity
  8
LC-006-003-----0
 62
     7
370
    25
100
AcDbText
 10
1085.0
 20
986.787607
 30
0.0
 40
25.0
  1
325
 50
90.0
 41
0.7
  7
LCTX0-400-0-0pDIN-Schrift
 72
     1
 11
1085.0
 21
1011.787607
 31
0.0
100
AcDbText
  0
ENDBLK
  5
505
330
503
100
AcDbEntity
  8
0
100
AcDbBlockEnd
  0
BLOCK
  5
51E
330
51D
100
AcDbEntity
  8
0
100
AcDbBlockBegin
  2
LCDIM10
 70
     0
 71
     0
 10
0.0
 20
0.0
 30
0.0
  3
LCDIM10
  1

  4
LCDIM10
  0
TEXT
  5
520
330
51D
100
AcDbEntity
  8
LC-006-003-----0
 62
     7
370
    25
100
AcDbText
 10
623.339016
 20
1099.507782
 30
0.0
 40
25.0
  1
R20
 50
309.867767
 41
0.7
  7
LCTX0-400-0-0pDIN-Schrift
100
AcDbText
  0
LINE
  5
521
330
51D
100
AcDbEntity
  8
LC-007-003-MTG-0
 62
     7
370
    25
100
AcDbLine
 10
636.580641
 20
1060.252578
 30
0.0
 11
546.676341
 21
1167.899952
 31
0.0
  0
LINE
  5
522
330
51D
100
AcDbEntity
  8
LC-006-003-----0
 62
     7
370
    25
100
AcDbLine
 10
565.069243
 20
1150.9677
 30
0.0
 11
546.676341
 21
1167.899952
 31
0.0
  0
LINE
  5
523
330
51D
100
AcDbEntity
  8
LC-006-003-----0
 62
     7
370
    25
100
AcDbLine
 10
546.676341
 20
1167.899952
 30
0.0
 11
560.060131
 21
1146.784219
 31
0.0
  0
LINE
  5
524
330
51D
100
AcDbEntity
  8
LC-006-003-----0
 62
     7
370
    25
100
AcDbLine
 10
560.060131
 20
1146.784219
 30
0.0
 11
565.069243
 21
1150.9677
 31
0.0
  0
LINE
  5
525
330
51D
100
AcDbEntity
  8
LC-006-003-----0
 62
     7
370
    25
100
AcDbLine
 10
564.453705
 20
1150.381167
 30
0.0
 11
550.842957
 21
1162.911033
 31
0.0
  0
LINE
  5
526
330
51D
100
AcDbEntity
  8
LC-006-003-----0
 62
     7
370
    25
100
AcDbLine
 10
550.842957
 20
1162.911033
 30
0.0
 11
560.746962
 21
1147.285391
 31
0.0
  0
LINE
  5
527
330
51D
100
AcDbEntity
  8
LC-006-003-----0
 62
     7
370
    25
100
AcDbLine
 10
563.838166
 20
1149.794633
 30
0.0
 11
555.009573
 21
1157.922114
 31
0.0
  0
LINE
  5
528
330
51D
100
AcDbEntity
  8
LC-006-003-----0
 62
     7
370
    25
100
AcDbLine
 10
555.009573
 20
1157.922114
 30
0.0
 11
561.433792
 21
1147.786562
 31
0.0
  0
LINE
  5
529
330
51D
100
AcDbEntity
  8
LC-006-003-----0
 62
     7
370
    25
100
AcDbLine
 10
563.222628
 20
1149.2081
 30
0.0
 11
559.176189
 21
1152.933195
 31
0.0
  0
LINE
  5
52A
330
51D
100
AcDbEntity
  8
LC-006-003-----0
 62
     7
370
    25
100
AcDbLine
 10
559.176189
 20
1152.933195
 30
0.0
 11
562.120623
 21
1148.287734
 31
0.0
  0
ENDBLK
  5
51F
330
51D
100
AcDbEntity
  8
0
100
AcDbBlockEnd
  0
BLOCK
  5
531
330
530
100
AcDbEntity
  8
0
100
AcDbBlockBegin
  2
LCDIM11
 70
     0
 71
     0
 10
0.0
 20
0.0
 30
0.0
  3
LCDIM11
  1

  4
LCDIM11
  0
LINE
  5
533
330
530
100
AcDbEntity
  8
LC-008-003-MTH-0
 62
     7
370
    25
100
AcDbLine
 10
1411.779932
 20
1884.687973
 30
0.0
 11
1411.779932
 21
1514.806439
 31
0.0
  0
LINE
  5
534
330
530
100
AcDbEntity
  8
LC-008-003-MTH-0
 62
     7
370
    25
100
AcDbLine
 10
1698.086954
 20
1579.591512
 30
0.0
 11
1698.086954
 21
1514.806439
 31
0.0
  0
LINE
  5
535
330
530
100
AcDbEntity
  8
LC-007-003-MTG-0
 62
     7
370
    25
100
AcDbLine
 10
1411.779932
 20
1529.80644
 30
0.0
 11
1698.086954
 21
1529.80644
 31
0.0
  0
LINE
  5
536
330
530
100
AcDbEntity
  8
LC-006-003-----0
 62
     7
370
    25
100
AcDbLine
 10
1436.566054
 20
1533.069595
 30
0.0
 11
1411.779932
 21
1529.80644
 31
0.0
  0
LINE
  5
537
330
530
100
AcDbEntity
  8
LC-006-003-----0
 62
     7
370
    25
100
AcDbLine
 10
1411.779932
 20
1529.80644
 30
0.0
 11
1436.566054
 21
1526.543285
 31
0.0
  0
LINE
  5
538
330
530
100
AcDbEntity
  8
LC-006-003-----0
 62
     7
370
    25
100
AcDbLine
 10
1436.566054
 20
1526.543285
 30
0.0
 11
1436.566054
 21
1533.069595
 31
0.0
  0
LINE
  5
539
330
530
100
AcDbEntity
  8
LC-006-003-----0
 62
     7
370
    25
100
AcDbLine
 10
1436.621662
 20
1532.221174
 30
0.0
 11
1418.279932
 21
1529.80644
 31
0.0
  0
LINE
  5
53A
330
530
100
AcDbEntity
  8
LC-006-003-----0
 62
     7
370
    25
100
AcDbLine
 10
1418.279932
 20
1529.80644
 30
0.0
 11
1436.621662
 21
1527.391705
 31
0.0
  0
LINE
  5
53B
330
530
100
AcDbEntity
  8
LC-006-003-----0
 62
     7
370
    25
100
AcDbLine
 10
1436.677271
 20
1531.372754
 30
0.0
 11
1424.779932
 21
1529.80644
 31
0.0
  0
LINE
  5
53C
330
530
100
AcDbEntity
  8
LC-006-003-----0
 62
     7
370
    25
100
AcDbLine
 10
1424.779932
 20
1529.80644
 30
0.0
 11
1436.677271
 21
1528.240125
 31
0.0
  0
LINE
  5
53D
330
530
100
AcDbEntity
  8
LC-006-003-----0
 62
     7
370
    25
100
AcDbLine
 10
1436.732879
 20
1530.524334
 30
0.0
 11
1431.279932
 21
1529.80644
 31
0.0
  0
LINE
  5
53E
330
530
100
AcDbEntity
  8
LC-006-003-----0
 62
     7
370
    25
100
AcDbLine
 10
1431.279932
 20
1529.80644
 30
0.0
 11
1436.732879
 21
1529.088546
 31
0.0
  0
LINE
  5
53F
330
530
100
AcDbEntity
  8
LC-006-003-----0
 62
     7
370
    25
100
AcDbLine
 10
1673.300832
 20
1526.543285
 30
0.0
 11
1698.086954
 21
1529.80644
 31
0.0
  0
LINE
  5
540
330
530
100
AcDbEntity
  8
LC-006-003-----0
 62
     7
370
    25
100
AcDbLine
 10
1698.086954
 20
1529.80644
 30
0.0
 11
1673.300832
 21
1533.069595
 31
0.0
  0
LINE
  5
541
330
530
100
AcDbEntity
  8
LC-006-003-----0
 62
     7
370
    25
100
AcDbLine
 10
1673.300832
 20
1533.069595
 30
0.0
 11
1673.300832
 21
1526.543285
 31
0.0
  0
LINE
  5
542
330
530
100
AcDbEntity
  8
LC-006-003-----0
 62
     7
370
    25
100
AcDbLine
 10
1673.245224
 20
1527.391705
 30
0.0
 11
1691.586954
 21
1529.80644
 31
0.0
  0
LINE
  5
543
330
530
100
AcDbEntity
  8
LC-006-003-----0
 62
     7
370
    25
100
AcDbLine
 10
1691.586954
 20
1529.80644
 30
0.0
 11
1673.245224
 21
1532.221174
 31
0.0
  0
LINE
  5
544
330
530
100
AcDbEntity
  8
LC-006-003-----0
 62
     7
370
    25
100
AcDbLine
 10
1673.189615
 20
1528.240125
 30
0.0
 11
1685.086954
 21
1529.80644
 31
0.0
  0
LINE
  5
545
330
530
100
AcDbEntity
  8
LC-006-003-----0
 62
     7
370
    25
100
AcDbLine
 10
1685.086954
 20
1529.80644
 30
0.0
 11
1673.189615
 21
1531.372754
 31
0.0
  0
LINE
  5
546
330
530
100
AcDbEntity
  8
LC-006-003-----0
 62
     7
370
    25
100
AcDbLine
 10
1673.134007
 20
1529.088546
 30
0.0
 11
1678.586954
 21
1529.80644
 31
0.0
  0
LINE
  5
547
330
530
100
AcDbEntity
  8
LC-006-003-----0
 62
     7
370
    25
100
AcDbLine
 10
1678.586954
 20
1529.80644
 30
0.0
 11
1673.134007
 21
1530.524334
 31
0.0
  0
TEXT
  5
548
330
530
100
AcDbEntity
  8
LC-006-003-----0
 62
     7
370
    25
100
AcDbText
 10
1524.932874
 20
1544.80644
 30
0.0
 40
25.0
  1
286
 41
0.7
  7
LCTX0-400-0-0pDIN-Schrift
 72
     1
 11
1549.932874
 21
1544.80644
 31
0.0
100
AcDbText
  0
ENDBLK
  5
532
330
530
100
AcDbEntity
  8
0
100
AcDbBlockEnd
  0
ENDSEC
  0
SECTION
  2
ENTITIES
  0
INSERT
  5
103
330
1F
100
AcDbEntity
  8
LC-003-230-ZVN-0
 62
     7
370
    25
100
AcDbBlockReference
  2
SYM1
 10
0.0
 20
0.0
 30
0.0
  0
ARC
  5
105
102
{ACAD_REACTORS
330
54E
102
}
330
1F
100
AcDbEntity
  8
LC-004-002-RND-0
 62
     7
370
    50
100
AcDbCircle
 10
968.640981
 20
1910.452833
 30
0.0
 40
46.0
100
AcDbArc
 50
0.0
 51
90.0
  0
ARC
  5
106
102
{ACAD_REACTORS
330
54E
102
}
330
1F
100
AcDbEntity
  8
LC-004-002-RND-0
 62
     7
370
    50
100
AcDbCircle
 10
559.111274
 20
1624.923126
 30
0.0
 40
46.0
100
AcDbArc
 50
180.0
 51
270.0
  0
ARC
  5
107
102
{ACAD_REACTORS
330
54E
102
}
330
1F
100
AcDbEntity
  8
LC-002-002-----0
 62
     7
370
    50
100
AcDbCircle
 10
559.496697
 20
1910.06741
 30
0.0
 40
20.0
100
AcDbArc
 50
90.0
 51
180.0
  0
ARC
  5
108
102
{ACAD_REACTORS
330
54E
102
}
330
1F
100
AcDbEntity
  8
LC-004-002-RND-0
 62
     7
370
    50
100
AcDbCircle
 10
559.111274
 20
1910.452833
 30
0.0
 40
46.0
100
AcDbArc
 50
90.0
 51
180.0
  0
CIRCLE
  5
109
102
{ACAD_REACTORS
330
54E
102
}
330
1F
100
AcDbEntity
  8
LC-002-002-----0
 62
     7
370
    50
100
AcDbCircle
 10
763.876127
 20
1829.687979
 30
0.0
 40
45.0
  0
ARC
  5
10A
102
{ACAD_REACTORS
330
54E
102
}
330
1F
100
AcDbEntity
  8
LC-002-002-----0
 62
     7
370
    50
100
AcDbCircle
 10
968.255558
 20
1910.06741
 30
0.0
 40
20.0
100
AcDbArc
 50
0.0
 51
90.0
  0
ARC
  5
10B
102
{ACAD_REACTORS
330
54E
102
}
330
1F
100
AcDbEntity
  8
LC-004-002-RND-0
 62
     7
370
    50
100
AcDbCircle
 10
968.640981
 20
1624.923126
 30
0.0
 40
46.0
100
AcDbArc
 50
270.0
 51
0.0
  0
ARC
  5
10C
102
{ACAD_REACTORS
330
54E
102
}
330
1F
100
AcDbEntity
  8
LC-002-002-----0
 62
     7
370
    50
100
AcDbCircle
 10
968.255558
 20
1625.308548
 30
0.0
 40
20.0
100
AcDbArc
 50
270.0
 51
0.0
  0
CIRCLE
  5
10D
102
{ACAD_REACTORS
330
54E
102
}
330
1F
100
AcDbEntity
  8
LC-002-002-----0
 62
     7
370
    50
100
AcDbCircle
 10
763.876127
 20
1829.687979
 30
0.0
 40
57.5
  0
ARC
  5
10E
102
{ACAD_REACTORS
330
54E
102
}
330
1F
100
AcDbEntity
  8
LC-002-002-----0
 62
     7
370
    50
100
AcDbCircle
 10
559.496697
 20
1625.308548
 30
0.0
 40
20.0
100
AcDbArc
 50
180.0
 51
270.0
  0
ARC
  5
10F
102
{ACAD_REACTORS
330
54E
102
}
330
1F
100
AcDbEntity
  8
LC-004-002-RND-0
 62
     7
370
    25
100
AcDbCircle
 10
597.991713
 20
1871.004011
 30
0.0
 40
19.0
100
AcDbArc
 50
90.0
 51
180.0
  0
ARC
  5
110
102
{ACAD_REACTORS
330
54E
102
}
330
1F
100
AcDbEntity
  8
LC-004-002-RND-0
 62
     7
370
    25
100
AcDbCircle
 10
597.991689
 20
1663.837978
 30
0.0
 40
19.0
100
AcDbArc
 50
180.000001
 51
270.0
  0
ARC
  5
111
102
{ACAD_REACTORS
330
54E
102
}
330
1F
100
AcDbEntity
  8
LC-004-002-RND-0
 62
     7
370
    25
100
AcDbCircle
 10
929.76057
 20
1663.837978
 30
0.0
 40
19.00000000000023
100
AcDbArc
 50
270.0
 51
0.0
  0
ARC
  5
112
102
{ACAD_REACTORS
330
54E
102
}
330
1F
100
AcDbEntity
  8
LC-004-002-RND-0
 62
     7
370
    25
100
AcDbCircle
 10
929.760542
 20
1871.004011
 30
0.0
 40
19.0
100
AcDbArc
 50
0.0
 51
90.0
  0
LINE
  5
115
102
{ACAD_REACTORS
330
554
102
}
330
1F
100
AcDbEntity
  8
LC-005-006-MLN-0
 62
     7
370
    25
100
AcDbLine
 10
763.876127
 20
2285.25
 30
0.0
 11
763.876127
 21
2263.25
 31
0.0
  0
LINE
  5
116
102
{ACAD_REACTORS
330
54E
102
}
330
1F
100
AcDbEntity
  8
LC-002-002-----0
 62
     7
370
    50
100
AcDbLine
 10
559.111274
 20
1956.452833
 30
0.0
 11
968.640981
 21
1956.452833
 31
0.0
  0
ELLIPSE
  5
117
102
{ACAD_REACTORS
330
54E
102
}
330
1F
100
AcDbEntity
  8
LC-002-002-----0
 62
     7
370
    25
100
AcDbEllipse
 10
763.876127
 20
1925.312979
 30
0.0
 11
15.50000002069473
 21
0.0
 31
0.0
210
0.0
220
0.0
230
0.9999999999999999
 40
0.096774
 41
0.0
 42
6.283185307179586
  0
LINE
  5
118
102
{ACAD_REACTORS
330
54E
102
}
330
1F
100
AcDbEntity
  8
LC-002-002-----0
 62
     7
370
    50
100
AcDbLine
 10
513.111274
 20
1910.452833
 30
0.0
 11
513.111274
 21
1624.923126
 31
0.0
  0
LINE
  5
119
102
{ACAD_REACTORS
330
54E
102
}
330
1F
100
AcDbEntity
  8
LC-002-002-----0
 62
     7
370
    50
100
AcDbLine
 10
1014.640981
 20
1910.452833
 30
0.0
 11
1014.640981
 21
1624.923126
 31
0.0
  0
LINE
  5
11A
102
{ACAD_REACTORS
330
54E
102
}
330
1F
100
AcDbEntity
  8
LC-002-002-----0
 62
     7
370
    50
100
AcDbLine
 10
559.111274
 20
1578.923126
 30
0.0
 11
968.640981
 21
1578.923126
 31
0.0
  0
LINE
  5
11B
102
{ACAD_REACTORS
330
54D
102
}
330
1F
100
AcDbEntity
  8
LC-005-006-MLN-0
 62
     7
370
    25
100
AcDbLine
 10
1658.624522
 20
1937.312151
 30
0.0
 11
1660.452562
 21
1922.423958
 31
0.0
  0
LINE
  5
11C
102
{ACAD_REACTORS
330
54E
102
}
330
1F
100
AcDbEntity
  8
LC-002-002-----0
 62
     7
370
    25
100
AcDbLine
 10
763.876127
 20
1890.004011
 30
0.0
 11
929.760542
 21
1890.004011
 31
0.0
  0
LINE
  5
11D
102
{ACAD_REACTORS
330
54E
102
}
330
1F
100
AcDbEntity
  8
LC-002-002-----0
 62
     7
370
    25
100
AcDbLine
 10
948.760542
 20
1871.004011
 30
0.0
 11
948.760542
 21
1829.687858
 31
0.0
  0
LINE
  5
11E
102
{ACAD_REACTORS
330
54E
102
}
330
1F
100
AcDbEntity
  8
LC-002-002-----0
 62
     7
370
    25
100
AcDbLine
 10
948.760566
 20
1829.687858
 30
0.0
 11
948.76057
 21
1663.837978
 31
0.0
  0
LINE
  5
11F
102
{ACAD_REACTORS
330
54E
102
}
330
1F
100
AcDbEntity
  8
LC-002-002-----0
 62
     7
370
    25
100
AcDbLine
 10
763.876127
 20
1644.837978
 30
0.0
 11
929.76057
 21
1644.837978
 31
0.0
  0
LINE
  5
120
102
{ACAD_REACTORS
330
54E
102
}
330
1F
100
AcDbEntity
  8
LC-002-002-----0
 62
     7
370
    25
100
AcDbLine
 10
597.991713
 20
1890.004011
 30
0.0
 11
763.876127
 21
1890.004011
 31
0.0
  0
LINE
  5
121
102
{ACAD_REACTORS
330
54E
102
}
330
1F
100
AcDbEntity
  8
LC-002-002-----0
 62
     7
370
    25
100
AcDbLine
 10
578.991713
 20
1871.004011
 30
0.0
 11
578.991713
 21
1829.687858
 31
0.0
  0
LINE
  5
122
102
{ACAD_REACTORS
330
54E
102
}
330
1F
100
AcDbEntity
  8
LC-002-002-----0
 62
     7
370
    25
100
AcDbLine
 10
578.991685
 20
1829.687858
 30
0.0
 11
578.991689
 21
1663.837977
 31
0.0
  0
LINE
  5
123
102
{ACAD_REACTORS
330
54E
102
}
330
1F
100
AcDbEntity
  8
LC-002-002-----0
 62
     7
370
    25
100
AcDbLine
 10
597.991689
 20
1644.837978
 30
0.0
 11
763.876127
 21
1644.837978
 31
0.0
  0
INSERT
  5
134
102
{ACAD_REACTORS
330
54E
102
}
330
1F
100
AcDbEntity
  8
LC-006-003-----0
 62
     7
370
    25
100
AcDbBlockReference
  2
LCDIM1
 10
0.0
 20
0.0
 30
0.0
  0
INSERT
  5
14F
102
{ACAD_REACTORS
330
54E
102
}
330
1F
100
AcDbEntity
  8
LC-006-003-----0
 62
     7
370
    25
100
AcDbBlockReference
  2
LCDIM2
 10
0.0
 20
0.0
 30
0.0
  0
LINE
  5
150
102
{ACAD_REACTORS
330
54E
102
}
330
1F
100
AcDbEntity
  8
LC-002-002-----0
 62
     7
370
    50
100
AcDbLine
 10
539.496697
 20
1910.06741
 30
0.0
 11
539.496697
 21
1625.308548
 31
0.0
  0
INSERT
  5
16A
102
{ACAD_REACTORS
330
54E
102
}
330
1F
100
AcDbEntity
  8
LC-006-003-----0
 62
     7
370
    25
100
AcDbBlockReference
  2
LCDIM3
 10
0.0
 20
0.0
 30
0.0
  0
LINE
  5
16B
102
{ACAD_REACTORS
330
54E
102
}
330
1F
100
AcDbEntity
  8
LC-002-002-----0
 62
     7
370
    50
100
AcDbLine
 10
988.255558
 20
1910.06741
 30
0.0
 11
988.255558
 21
1625.308548
 31
0.0
  0
LINE
  5
16C
102
{ACAD_REACTORS
330
54E
102
}
330
1F
100
AcDbEntity
  8
LC-002-002-----0
 62
     7
370
    50
100
AcDbLine
 10
968.255558
 20
1930.06741
 30
0.0
 11
559.496697
 21
1930.06741
 31
0.0
  0
LINE
  5
16D
102
{ACAD_REACTORS
330
554
102
}
330
1F
100
AcDbEntity
  8
LC-002-002-----0
 62
     7
370
    50
100
AcDbLine
 10
513.77966
 20
2450.25
 30
0.0
 11
763.876127
 21
2450.25
 31
0.0
  0
LINE
  5
16E
102
{ACAD_REACTORS
330
554
102
}
330
1F
100
AcDbEntity
  8
LC-002-002-----0
 62
     7
370
    50
100
AcDbLine
 10
763.876127
 20
2450.25
 30
0.0
 11
1013.972595
 21
2450.25
 31
0.0
  0
LINE
  5
16F
102
{ACAD_REACTORS
330
554
102
}
330
1F
100
AcDbEntity
  8
LC-002-002-----0
 62
     7
370
    50
100
AcDbLine
 10
513.111274
 20
2442.25
 30
0.0
 11
525.111274
 21
2442.25
 31
0.0
  0
LINE
  5
170
102
{ACAD_REACTORS
330
54E
102
}
330
1F
100
AcDbEntity
  8
LC-002-002-----0
 62
     7
370
    50
100
AcDbLine
 10
968.255558
 20
1605.308548
 30
0.0
 11
559.496697
 21
1605.308548
 31
0.0
  0
LINE
  5
171
102
{ACAD_REACTORS
330
554
102
}
330
1F
100
AcDbEntity
  8
LC-002-002-----0
 62
     7
370
    50
100
AcDbLine
 10
525.111274
 20
2442.25
 30
0.0
 11
525.111274
 21
2439.25
 31
0.0
  0
LINE
  5
172
102
{ACAD_REACTORS
330
54D
102
}
330
1F
100
AcDbEntity
  8
LC-002-002-----0
 62
     7
370
    50
100
AcDbLine
 10
1698.086954
 20
1579.591512
 30
0.0
 11
1698.086954
 21
1829.687979
 31
0.0
  0
LINE
  5
173
102
{ACAD_REACTORS
330
554
102
}
330
1F
100
AcDbEntity
  8
LC-002-002-----0
 62
     7
370
    50
100
AcDbLine
 10
1002.640981
 20
2442.25
 30
0.0
 11
1002.640981
 21
2439.25
 31
0.0
  0
LINE
  5
174
102
{ACAD_REACTORS
330
54D
102
}
330
1F
100
AcDbEntity
  8
LC-002-002-----0
 62
     7
370
    50
100
AcDbLine
 10
1698.086954
 20
1829.687979
 30
0.0
 11
1698.086954
 21
1930.06741
 31
0.0
  0
LINE
  5
175
102
{ACAD_REACTORS
330
54D
102
}
330
1F
100
AcDbEntity
  8
LC-005-006-MLN-0
 62
     7
370
    25
100
AcDbLine
 10
1533.086954
 20
1829.687979
 30
0.0
 11
1511.086954
 21
1829.687979
 31
0.0
  0
LINE
  5
176
102
{ACAD_REACTORS
330
54D
102
}
330
1F
100
AcDbEntity
  8
LC-002-002-----0
 62
     7
370
    50
100
AcDbLine
 10
1690.086954
 20
1578.923126
 30
0.0
 11
1690.086954
 21
1590.923126
 31
0.0
  0
LINE
  5
177
102
{ACAD_REACTORS
330
54D
102
}
330
1F
100
AcDbEntity
  8
LC-002-002-----0
 62
     7
370
    25
100
AcDbLine
 10
1530.086954
 20
1887.937979
 30
0.0
 11
1530.086954
 21
1771.437979
 31
0.0
  0
LINE
  5
178
102
{ACAD_REACTORS
330
54D
102
}
330
1F
100
AcDbEntity
  8
LC-002-002-----0
 62
     7
370
    50
100
AcDbLine
 10
1690.086954
 20
1944.452833
 30
0.0
 11
1687.086954
 21
1944.452833
 31
0.0
  0
LINE
  5
179
102
{ACAD_REACTORS
330
54D
102
}
330
1F
100
AcDbEntity
  8
LC-002-002-----0
 62
     7
370
    50
100
AcDbLine
 10
1690.086954
 20
1590.923126
 30
0.0
 11
1687.086954
 21
1590.923126
 31
0.0
  0
LINE
  5
17A
102
{ACAD_REACTORS
330
54D
102
}
330
1F
100
AcDbEntity
  8
LC-002-002-----0
 62
     7
370
    25
100
AcDbLine
 10
1525.957802
 20
1875.687979
 30
0.0
 11
1525.957802
 21
1783.687979
 31
0.0
  0
LINE
  5
17B
102
{ACAD_REACTORS
330
54D
102
}
330
1F
100
AcDbEntity
  8
LC-002-002-----0
 62
     7
370
    50
100
AcDbLine
 10
1643.605664
 20
1932.445537
 30
0.0
 11
1644.702488
 21
1923.512622
 31
0.0
  0
LINE
  5
17C
102
{ACAD_REACTORS
330
54D
102
}
330
1F
100
AcDbEntity
  8
LC-002-002-----0
 62
     7
370
    50
100
AcDbLine
 10
1674.374595
 20
1936.223487
 30
0.0
 11
1675.471419
 21
1927.290572
 31
0.0
  0
CIRCLE
  5
17D
102
{ACAD_REACTORS
330
554
102
}
330
1F
100
AcDbEntity
  8
LC-002-002-----0
 62
     7
370
    50
100
AcDbCircle
 10
763.876127
 20
2412.25
 30
0.0
 40
15.5
  0
ARC
  5
17E
102
{ACAD_REACTORS
330
554
102
}
330
1F
100
AcDbEntity
  8
LC-004-002-RND-0
 62
     7
370
    50
100
AcDbCircle
 10
695.054859
 20
2265.608795
 30
0.0
 40
5.999999999999704
100
AcDbArc
 50
25.0
 51
88.0
  0
LINE
  5
17F
102
{ACAD_REACTORS
330
554
102
}
330
1F
100
AcDbEntity
  8
LC-002-002-----0
 62
     7
370
    50
100
AcDbLine
 10
702.650268
 20
2266.25
 30
0.0
 11
825.101987
 21
2266.25
 31
0.0
  0
LINE
  5
180
102
{ACAD_REACTORS
330
554
102
}
330
1F
100
AcDbEntity
  8
LC-002-002-----0
 62
     7
370
    25
100
AcDbLine
 10
705.626127
 20
2282.25
 30
0.0
 11
822.126127
 21
2282.25
 31
0.0
  0
LINE
  5
181
102
{ACAD_REACTORS
330
554
102
}
330
1F
100
AcDbEntity
  8
LC-002-002-----0
 62
     7
370
    25
100
AcDbLine
 10
717.876127
 20
2278.120848
 30
0.0
 11
809.876127
 21
2278.120848
 31
0.0
  0
LINE
  5
182
102
{ACAD_REACTORS
330
554
102
}
330
1F
100
AcDbEntity
  8
LC-002-002-----0
 62
     7
370
    50
100
AcDbLine
 10
718.914692
 20
2266.25
 30
0.0
 11
718.076758
 21
2275.827626
 31
0.0
  0
LINE
  5
183
102
{ACAD_REACTORS
330
554
102
}
330
1F
100
AcDbEntity
  8
LC-002-002-----0
 62
     7
370
    50
100
AcDbLine
 10
532.426664
 20
2433.981216
 30
0.0
 11
546.493042
 21
2319.419756
 31
0.0
  0
LINE
  5
184
102
{ACAD_REACTORS
330
554
102
}
330
1F
100
AcDbEntity
  8
LC-002-002-----0
 62
     7
370
    50
100
AcDbLine
 10
525.111274
 20
2439.25
 30
0.0
 11
526.471387
 21
2439.25
 31
0.0
  0
LINE
  5
185
102
{ACAD_REACTORS
330
554
102
}
330
1F
100
AcDbEntity
  8
LC-002-002-----0
 62
     7
370
    50
100
AcDbLine
 10
1001.280868
 20
2439.25
 30
0.0
 11
1002.640981
 21
2439.25
 31
0.0
  0
LINE
  5
186
102
{ACAD_REACTORS
330
554
102
}
330
1F
100
AcDbEntity
  8
LC-002-002-----0
 62
     7
370
    50
100
AcDbLine
 10
539.496697
 20
2450.25
 30
0.0
 11
555.426124
 21
2320.515228
 31
0.0
  0
LINE
  5
187
102
{ACAD_REACTORS
330
554
102
}
330
1F
100
AcDbEntity
  8
LC-002-002-----0
 62
     7
370
    50
100
AcDbLine
 10
513.111274
 20
2442.25
 30
0.0
 11
513.615395
 21
2449.459269
 31
0.0
  0
ARC
  5
188
102
{ACAD_REACTORS
330
554
102
}
330
1F
100
AcDbEntity
  8
LC-002-002-----0
 62
     7
370
    50
100
AcDbCircle
 10
516.608087
 20
2449.25
 30
0.0
 40
3.000000000000022
100
AcDbArc
 50
160.528779
 51
176.0
  0
ARC
  5
189
102
{ACAD_REACTORS
330
554
102
}
330
1F
100
AcDbEntity
  8
LC-002-002-----0
 62
     7
370
    50
100
AcDbCircle
 10
526.471387
 20
2433.25
 30
0.0
 40
5.999999999999815
100
AcDbArc
 50
7.0
 51
90.0
  0
LINE
  5
18A
102
{ACAD_REACTORS
330
554
102
}
330
1F
100
AcDbEntity
  8
LC-002-002-----0
 62
     7
370
    50
100
AcDbLine
 10
695.264256
 20
2271.60514
 30
0.0
 11
578.572251
 21
2275.680114
 31
0.0
  0
LINE
  5
18B
102
{ACAD_REACTORS
330
554
102
}
330
1F
100
AcDbEntity
  8
LC-002-002-----0
 62
     7
370
    50
100
AcDbLine
 10
700.492706
 20
2268.144504
 30
0.0
 11
700.837652
 21
2267.404763
 31
0.0
  0
ARC
  5
18C
102
{ACAD_REACTORS
330
554
102
}
330
1F
100
AcDbEntity
  8
LC-002-002-----0
 62
     7
370
    50
100
AcDbCircle
 10
702.650268
 20
2268.25
 30
0.0
 40
1.999999999999931
100
AcDbArc
 50
205.0
 51
270.0
  0
LINE
  5
18D
102
{ACAD_REACTORS
330
554
102
}
330
1F
100
AcDbEntity
  8
LC-002-002-----0
 62
     7
370
    50
100
AcDbLine
 10
995.325591
 20
2433.981216
 30
0.0
 11
981.259213
 21
2319.419756
 31
0.0
  0
ARC
  5
18E
102
{ACAD_REACTORS
330
554
102
}
330
1F
100
AcDbEntity
  8
LC-002-002-----0
 62
     7
370
    50
100
AcDbCircle
 10
825.101987
 20
2268.25
 30
0.0
 40
2.0
100
AcDbArc
 50
270.0
 51
335.0
  0
LINE
  5
18F
102
{ACAD_REACTORS
330
554
102
}
330
1F
100
AcDbEntity
  8
LC-002-002-----0
 62
     7
370
    50
100
AcDbLine
 10
826.914603
 20
2267.404763
 30
0.0
 11
827.259549
 21
2268.144504
 31
0.0
  0
ARC
  5
190
102
{ACAD_REACTORS
330
554
102
}
330
1F
100
AcDbEntity
  8
LC-002-002-----0
 62
     7
370
    50
100
AcDbCircle
 10
832.697396
 20
2265.608795
 30
0.0
 40
6.000000000000002
100
AcDbArc
 50
92.0
 51
155.0
  0
LINE
  5
191
102
{ACAD_REACTORS
330
554
102
}
330
1F
100
AcDbEntity
  8
LC-002-002-----0
 62
     7
370
    50
100
AcDbLine
 10
832.487999
 20
2271.60514
 30
0.0
 11
949.180004
 21
2275.680114
 31
0.0
  0
ARC
  5
192
102
{ACAD_REACTORS
330
554
102
}
330
1F
100
AcDbEntity
  8
LC-002-002-----0
 62
     7
370
    50
100
AcDbCircle
 10
1001.280868
 20
2433.25
 30
0.0
 40
6.0
100
AcDbArc
 50
90.0
 51
173.0
  0
LINE
  5
193
102
{ACAD_REACTORS
330
554
102
}
330
1F
100
AcDbEntity
  8
LC-002-002-----0
 62
     7
370
    50
100
AcDbLine
 10
988.255558
 20
2450.25
 30
0.0
 11
972.326131
 21
2320.515228
 31
0.0
  0
ARC
  5
194
102
{ACAD_REACTORS
330
554
102
}
330
1F
100
AcDbEntity
  8
LC-002-002-----0
 62
     7
370
    50
100
AcDbCircle
 10
1011.144168
 20
2449.25
 30
0.0
 40
3.000000000000006
100
AcDbArc
 50
4.0
 51
19.471221
  0
LINE
  5
195
102
{ACAD_REACTORS
330
554
102
}
330
1F
100
AcDbEntity
  8
LC-002-002-----0
 62
     7
370
    50
100
AcDbLine
 10
948.760466
 20
2286.672169
 30
0.0
 11
823.010314
 21
2282.280876
 31
0.0
  0
LINE
  5
196
102
{ACAD_REACTORS
330
554
102
}
330
1F
100
AcDbEntity
  8
LC-002-002-----0
 62
     7
370
    50
100
AcDbLine
 10
1014.640981
 20
2442.25
 30
0.0
 11
1014.13686
 21
2449.459269
 31
0.0
  0
ARC
  5
197
102
{ACAD_REACTORS
330
554
102
}
330
1F
100
AcDbEntity
  8
LC-002-002-----0
 62
     7
370
    50
100
AcDbCircle
 10
823.045213
 20
2281.281486
 30
0.0
 40
1.000000000000046
100
AcDbArc
 50
147.333333
 51
175.0
  0
ARC
  5
198
102
{ACAD_REACTORS
330
554
102
}
330
1F
100
AcDbEntity
  8
LC-002-002-----0
 62
     7
370
    50
100
AcDbCircle
 10
823.045213
 20
2281.281486
 30
0.0
 40
0.9999999999998329
100
AcDbArc
 50
92.0
 51
147.333333
  0
LINE
  5
199
102
{ACAD_REACTORS
330
554
102
}
330
1F
100
AcDbEntity
  8
LC-002-002-----0
 62
     7
370
    50
100
AcDbLine
 10
822.049019
 20
2281.368641
 30
0.0
 11
822.018027
 21
2281.014407
 31
0.0
  0
ARC
  5
19A
102
{ACAD_REACTORS
330
554
102
}
330
1F
100
AcDbEntity
  8
LC-002-002-----0
 62
     7
370
    50
100
AcDbCircle
 10
821.021832
 20
2281.101563
 30
0.0
 40
1.000000000000082
100
AcDbArc
 50
330.0
 51
355.0
  0
ARC
  5
19B
102
{ACAD_REACTORS
330
554
102
}
330
1F
100
AcDbEntity
  8
LC-002-002-----0
 62
     7
370
    50
100
AcDbCircle
 10
821.021832
 20
2281.101563
 30
0.0
 40
1.000000000000125
100
AcDbArc
 50
280.0
 51
330.0
  0
LINE
  5
19C
102
{ACAD_REACTORS
330
554
102
}
330
1F
100
AcDbEntity
  8
LC-002-002-----0
 62
     7
370
    50
100
AcDbLine
 10
821.195481
 20
2280.116755
 30
0.0
 11
812.143136
 21
2278.520583
 31
0.0
  0
ARC
  5
19D
102
{ACAD_REACTORS
330
554
102
}
330
1F
100
AcDbEntity
  8
LC-002-002-----0
 62
     7
370
    50
100
AcDbCircle
 10
812.664081
 20
2275.566159
 30
0.0
 40
2.999999999999927
100
AcDbArc
 50
100.0
 51
175.0
  0
ARC
  5
19E
102
{ACAD_REACTORS
330
554
102
}
330
1F
100
AcDbEntity
  8
LC-002-002-----0
 62
     7
370
    50
100
AcDbCircle
 10
715.088174
 20
2275.566159
 30
0.0
 40
2.999999999999974
100
AcDbArc
 50
5.0
 51
80.0
  0
LINE
  5
19F
102
{ACAD_REACTORS
330
554
102
}
330
1F
100
AcDbEntity
  8
LC-002-002-----0
 62
     7
370
    50
100
AcDbLine
 10
715.609119
 20
2278.520583
 30
0.0
 11
706.556774
 21
2280.116755
 31
0.0
  0
ARC
  5
1A0
102
{ACAD_REACTORS
330
554
102
}
330
1F
100
AcDbEntity
  8
LC-002-002-----0
 62
     7
370
    50
100
AcDbCircle
 10
706.730423
 20
2281.101563
 30
0.0
 40
1.000000000000293
100
AcDbArc
 50
185.0
 51
260.0
  0
LINE
  5
1A1
102
{ACAD_REACTORS
330
554
102
}
330
1F
100
AcDbEntity
  8
LC-002-002-----0
 62
     7
370
    50
100
AcDbLine
 10
705.734228
 20
2281.014407
 30
0.0
 11
705.703236
 21
2281.368641
 31
0.0
  0
ARC
  5
1A2
102
{ACAD_REACTORS
330
554
102
}
330
1F
100
AcDbEntity
  8
LC-002-002-----0
 62
     7
370
    50
100
AcDbCircle
 10
704.707042
 20
2281.281486
 30
0.0
 40
1.000000000000293
100
AcDbArc
 50
5.0
 51
88.0
  0
LINE
  5
1A3
102
{ACAD_REACTORS
330
554
102
}
330
1F
100
AcDbEntity
  8
LC-002-002-----0
 62
     7
370
    50
100
AcDbLine
 10
704.741941
 20
2282.280876
 30
0.0
 11
578.991789
 21
2286.672169
 31
0.0
  0
LINE
  5
1A4
102
{ACAD_REACTORS
330
554
102
}
330
1F
100
AcDbEntity
  8
LC-002-002-----0
 62
     7
370
    50
100
AcDbLine
 10
546.493042
 20
2319.419756
 30
0.0
 11
547.755442
 21
2310.691755
 31
0.0
  0
LINE
  5
1A5
102
{ACAD_REACTORS
330
554
102
}
330
1F
100
AcDbEntity
  8
LC-002-002-----0
 62
     7
370
    50
100
AcDbLine
 10
547.755442
 20
2310.691755
 30
0.0
 11
549.294503
 21
2303.059308
 31
0.0
  0
LINE
  5
1A6
102
{ACAD_REACTORS
330
554
102
}
330
1F
100
AcDbEntity
  8
LC-002-002-----0
 62
     7
370
    50
100
AcDbLine
 10
549.294503
 20
2303.059308
 30
0.0
 11
551.190069
 21
2296.343356
 31
0.0
  0
LINE
  5
1A7
102
{ACAD_REACTORS
330
554
102
}
330
1F
100
AcDbEntity
  8
LC-002-002-----0
 62
     7
370
    50
100
AcDbLine
 10
551.190069
 20
2296.343356
 30
0.0
 11
553.661593
 21
2290.320891
 31
0.0
  0
LINE
  5
1A8
102
{ACAD_REACTORS
330
554
102
}
330
1F
100
AcDbEntity
  8
LC-002-002-----0
 62
     7
370
    50
100
AcDbLine
 10
553.661593
 20
2290.320891
 30
0.0
 11
556.867706
 21
2285.16993
 31
0.0
  0
LINE
  5
1A9
102
{ACAD_REACTORS
330
554
102
}
330
1F
100
AcDbEntity
  8
LC-002-002-----0
 62
     7
370
    50
100
AcDbLine
 10
556.867706
 20
2285.16993
 30
0.0
 11
560.937448
 21
2281.05968
 31
0.0
  0
LINE
  5
1AA
102
{ACAD_REACTORS
330
554
102
}
330
1F
100
AcDbEntity
  8
LC-002-002-----0
 62
     7
370
    50
100
AcDbLine
 10
560.937448
 20
2281.05968
 30
0.0
 11
565.969437
 21
2278.127939
 31
0.0
  0
LINE
  5
1AB
102
{ACAD_REACTORS
330
554
102
}
330
1F
100
AcDbEntity
  8
LC-002-002-----0
 62
     7
370
    50
100
AcDbLine
 10
565.969437
 20
2278.127939
 30
0.0
 11
571.931646
 21
2276.381488
 31
0.0
  0
LINE
  5
1AC
102
{ACAD_REACTORS
330
554
102
}
330
1F
100
AcDbEntity
  8
LC-002-002-----0
 62
     7
370
    50
100
AcDbLine
 10
571.931646
 20
2276.381488
 30
0.0
 11
578.572197
 21
2275.680116
 31
0.0
  0
LINE
  5
1AD
102
{ACAD_REACTORS
330
554
102
}
330
1F
100
AcDbEntity
  8
LC-002-002-----0
 62
     7
370
    50
100
AcDbLine
 10
578.981466
 20
2286.672538
 30
0.0
 11
573.926631
 21
2287.255069
 31
0.0
  0
LINE
  5
1AE
102
{ACAD_REACTORS
330
554
102
}
330
1F
100
AcDbEntity
  8
LC-002-002-----0
 62
     7
370
    50
100
AcDbLine
 10
573.926631
 20
2287.255069
 30
0.0
 11
569.406751
 21
2288.741375
 31
0.0
  0
LINE
  5
1AF
102
{ACAD_REACTORS
330
554
102
}
330
1F
100
AcDbEntity
  8
LC-002-002-----0
 62
     7
370
    50
100
AcDbLine
 10
569.406751
 20
2288.741375
 30
0.0
 11
565.685394
 21
2291.202487
 31
0.0
  0
LINE
  5
1B0
102
{ACAD_REACTORS
330
554
102
}
330
1F
100
AcDbEntity
  8
LC-002-002-----0
 62
     7
370
    50
100
AcDbLine
 10
565.685394
 20
2291.202487
 30
0.0
 11
562.77203
 21
2294.540159
 31
0.0
  0
LINE
  5
1B1
102
{ACAD_REACTORS
330
554
102
}
330
1F
100
AcDbEntity
  8
LC-002-002-----0
 62
     7
370
    50
100
AcDbLine
 10
562.77203
 20
2294.540159
 30
0.0
 11
560.52357
 21
2298.588362
 31
0.0
  0
LINE
  5
1B2
102
{ACAD_REACTORS
330
554
102
}
330
1F
100
AcDbEntity
  8
LC-002-002-----0
 62
     7
370
    50
100
AcDbLine
 10
560.52357
 20
2298.588362
 30
0.0
 11
558.793973
 21
2303.210785
 31
0.0
  0
LINE
  5
1B3
102
{ACAD_REACTORS
330
554
102
}
330
1F
100
AcDbEntity
  8
LC-002-002-----0
 62
     7
370
    50
100
AcDbLine
 10
558.793973
 20
2303.210785
 30
0.0
 11
557.453309
 21
2308.302761
 31
0.0
  0
LINE
  5
1B4
102
{ACAD_REACTORS
330
554
102
}
330
1F
100
AcDbEntity
  8
LC-002-002-----0
 62
     7
370
    50
100
AcDbLine
 10
557.453309
 20
2308.302761
 30
0.0
 11
556.349712
 21
2314.025761
 31
0.0
  0
LINE
  5
1B5
102
{ACAD_REACTORS
330
554
102
}
330
1F
100
AcDbEntity
  8
LC-002-002-----0
 62
     7
370
    50
100
AcDbLine
 10
556.349712
 20
2314.025761
 30
0.0
 11
555.426351
 21
2320.513377
 31
0.0
  0
LINE
  5
1B6
102
{ACAD_REACTORS
330
554
102
}
330
1F
100
AcDbEntity
  8
LC-002-002-----0
 62
     7
370
    50
100
AcDbLine
 10
808.837563
 20
2266.25
 30
0.0
 11
809.675497
 21
2275.827626
 31
0.0
  0
LINE
  5
1B7
102
{ACAD_REACTORS
330
554
102
}
330
1F
100
AcDbEntity
  8
LC-002-002-----0
 62
     7
370
    50
100
AcDbLine
 10
949.180058
 20
2275.680116
 30
0.0
 11
955.820609
 21
2276.381488
 31
0.0
  0
LINE
  5
1B8
102
{ACAD_REACTORS
330
554
102
}
330
1F
100
AcDbEntity
  8
LC-002-002-----0
 62
     7
370
    50
100
AcDbLine
 10
955.820609
 20
2276.381488
 30
0.0
 11
961.782818
 21
2278.127939
 31
0.0
  0
LINE
  5
1B9
102
{ACAD_REACTORS
330
554
102
}
330
1F
100
AcDbEntity
  8
LC-002-002-----0
 62
     7
370
    50
100
AcDbLine
 10
961.782818
 20
2278.127939
 30
0.0
 11
966.814807
 21
2281.05968
 31
0.0
  0
LINE
  5
1BA
102
{ACAD_REACTORS
330
554
102
}
330
1F
100
AcDbEntity
  8
LC-002-002-----0
 62
     7
370
    50
100
AcDbLine
 10
966.814807
 20
2281.05968
 30
0.0
 11
970.884548
 21
2285.16993
 31
0.0
  0
LINE
  5
1BB
102
{ACAD_REACTORS
330
554
102
}
330
1F
100
AcDbEntity
  8
LC-002-002-----0
 62
     7
370
    50
100
AcDbLine
 10
970.884548
 20
2285.16993
 30
0.0
 11
974.090662
 21
2290.320891
 31
0.0
  0
LINE
  5
1BC
102
{ACAD_REACTORS
330
554
102
}
330
1F
100
AcDbEntity
  8
LC-002-002-----0
 62
     7
370
    50
100
AcDbLine
 10
974.090662
 20
2290.320891
 30
0.0
 11
976.562186
 21
2296.343356
 31
0.0
  0
LINE
  5
1BD
102
{ACAD_REACTORS
330
554
102
}
330
1F
100
AcDbEntity
  8
LC-002-002-----0
 62
     7
370
    50
100
AcDbLine
 10
976.562186
 20
2296.343356
 30
0.0
 11
978.457752
 21
2303.059308
 31
0.0
  0
LINE
  5
1BE
102
{ACAD_REACTORS
330
554
102
}
330
1F
100
AcDbEntity
  8
LC-002-002-----0
 62
     7
370
    50
100
AcDbLine
 10
978.457752
 20
2303.059308
 30
0.0
 11
979.996813
 21
2310.691755
 31
0.0
  0
LINE
  5
1BF
102
{ACAD_REACTORS
330
554
102
}
330
1F
100
AcDbEntity
  8
LC-002-002-----0
 62
     7
370
    50
100
AcDbLine
 10
979.996813
 20
2310.691755
 30
0.0
 11
981.259213
 21
2319.419756
 31
0.0
  0
LINE
  5
1C0
102
{ACAD_REACTORS
330
554
102
}
330
1F
100
AcDbEntity
  8
LC-002-002-----0
 62
     7
370
    50
100
AcDbLine
 10
972.325916
 20
2320.513472
 30
0.0
 11
971.399996
 21
2314.010369
 31
0.0
  0
LINE
  5
1C1
102
{ACAD_REACTORS
330
554
102
}
330
1F
100
AcDbEntity
  8
LC-002-002-----0
 62
     7
370
    50
100
AcDbLine
 10
971.399996
 20
2314.010369
 30
0.0
 11
970.29293
 21
2308.275964
 31
0.0
  0
LINE
  5
1C2
102
{ACAD_REACTORS
330
554
102
}
330
1F
100
AcDbEntity
  8
LC-002-002-----0
 62
     7
370
    50
100
AcDbLine
 10
970.29293
 20
2308.275964
 30
0.0
 11
968.948261
 21
2303.178567
 31
0.0
  0
LINE
  5
1C3
102
{ACAD_REACTORS
330
554
102
}
330
1F
100
AcDbEntity
  8
LC-002-002-----0
 62
     7
370
    50
100
AcDbLine
 10
968.948261
 20
2303.178567
 30
0.0
 11
967.212679
 21
2298.552978
 31
0.0
  0
LINE
  5
1C4
102
{ACAD_REACTORS
330
554
102
}
330
1F
100
AcDbEntity
  8
LC-002-002-----0
 62
     7
370
    50
100
AcDbLine
 10
967.212679
 20
2298.552978
 30
0.0
 11
964.957128
 21
2294.50661
 31
0.0
  0
LINE
  5
1C5
102
{ACAD_REACTORS
330
554
102
}
330
1F
100
AcDbEntity
  8
LC-002-002-----0
 62
     7
370
    50
100
AcDbLine
 10
964.957128
 20
2294.50661
 30
0.0
 11
962.038449
 21
2291.177308
 31
0.0
  0
LINE
  5
1C6
102
{ACAD_REACTORS
330
554
102
}
330
1F
100
AcDbEntity
  8
LC-002-002-----0
 62
     7
370
    50
100
AcDbLine
 10
962.038449
 20
2291.177308
 30
0.0
 11
958.320146
 21
2288.729346
 31
0.0
  0
LINE
  5
1C7
102
{ACAD_REACTORS
330
554
102
}
330
1F
100
AcDbEntity
  8
LC-002-002-----0
 62
     7
370
    50
100
AcDbLine
 10
958.320146
 20
2288.729346
 30
0.0
 11
953.813146
 21
2287.252464
 31
0.0
  0
LINE
  5
1C8
102
{ACAD_REACTORS
330
554
102
}
330
1F
100
AcDbEntity
  8
LC-002-002-----0
 62
     7
370
    50
100
AcDbLine
 10
953.813146
 20
2287.252464
 30
0.0
 11
948.771019
 21
2286.672546
 31
0.0
  0
LINE
  5
1C9
102
{ACAD_REACTORS
330
54D
102
}
330
1F
100
AcDbEntity
  8
LC-002-002-----0
 62
     7
370
    50
100
AcDbLine
 10
1681.81817
 20
1598.238515
 30
0.0
 11
1567.255344
 21
1612.305062
 31
0.0
  0
LINE
  5
1CA
102
{ACAD_REACTORS
330
54D
102
}
330
1F
100
AcDbEntity
  8
LC-002-002-----0
 62
     7
370
    50
100
AcDbLine
 10
1681.81817
 20
1937.137443
 30
0.0
 11
1562.906522
 21
1922.536929
 31
0.0
  0
LINE
  5
1CB
102
{ACAD_REACTORS
330
54D
102
}
330
1F
100
AcDbEntity
  8
LC-002-002-----0
 62
     7
370
    50
100
AcDbLine
 10
1514.086954
 20
1890.913839
 30
0.0
 11
1514.086954
 21
1768.46212
 31
0.0
  0
LINE
  5
1CC
102
{ACAD_REACTORS
330
54D
102
}
330
1F
100
AcDbEntity
  8
LC-002-002-----0
 62
     7
370
    50
100
AcDbLine
 10
1687.086954
 20
1590.923126
 30
0.0
 11
1687.086954
 21
1592.283239
 31
0.0
  0
LINE
  5
1CD
102
{ACAD_REACTORS
330
54D
102
}
330
1F
100
AcDbEntity
  8
LC-002-002-----0
 62
     7
370
    50
100
AcDbLine
 10
1687.086954
 20
1943.09272
 30
0.0
 11
1687.086954
 21
1944.452833
 31
0.0
  0
LINE
  5
1CE
102
{ACAD_REACTORS
330
54D
102
}
330
1F
100
AcDbEntity
  8
LC-002-002-----0
 62
     7
370
    50
100
AcDbLine
 10
1698.086954
 20
1605.308548
 30
0.0
 11
1568.352168
 21
1621.237977
 31
0.0
  0
ARC
  5
1D0
102
{ACAD_REACTORS
330
54D
102
}
330
1F
100
AcDbEntity
  8
LC-009-100-D00-0
 62
     7
370
    13
100
AcDbCircle
 10
1516.086954
 20
1768.46212
 30
0.0
 40
1.999999999999976
100
AcDbArc
 50
223.333333
 51
245.0
  0
ARC
  5
1D1
102
{ACAD_REACTORS
330
54D
102
}
330
1F
100
AcDbEntity
  8
LC-002-002-----0
 62
     7
370
    50
100
AcDbCircle
 10
1516.086954
 20
1768.46212
 30
0.0
 40
2.0
100
AcDbArc
 50
180.0
 51
223.333333
  0
LINE
  5
1D2
102
{ACAD_REACTORS
330
54D
102
}
330
1F
100
AcDbEntity
  8
LC-002-002-----0
 62
     7
370
    50
100
AcDbLine
 10
1698.086954
 20
1930.06741
 30
0.0
 11
1564.003346
 21
1913.604013
 31
0.0
  0
LINE
  5
1D3
102
{ACAD_REACTORS
330
54D
102
}
330
1F
100
AcDbEntity
  8
LC-002-002-----0
 62
     7
370
    50
100
AcDbLine
 10
1690.086954
 20
1578.923126
 30
0.0
 11
1697.296223
 21
1579.427247
 31
0.0
  0
LINE
  5
1D4
102
{ACAD_REACTORS
330
54D
102
}
330
1F
100
AcDbEntity
  8
LC-002-002-----0
 62
     7
370
    50
100
AcDbLine
 10
1690.086954
 20
1956.452833
 30
0.0
 11
1697.296223
 21
1955.948712
 31
0.0
  0
ARC
  5
1D5
102
{ACAD_REACTORS
330
54D
102
}
330
1F
100
AcDbEntity
  8
LC-002-002-----0
 62
     7
370
    50
100
AcDbCircle
 10
1513.445748
 20
1760.866711
 30
0.0
 40
5.999999999999758
100
AcDbArc
 50
2.0
 51
23.000012
  0
ARC
  5
1D6
102
{ACAD_REACTORS
330
54D
102
}
330
1F
100
AcDbEntity
  8
LC-002-002-----0
 62
     7
370
    50
100
AcDbCircle
 10
1513.445748
 20
1760.866711
 30
0.0
 40
6.00000000000006
100
AcDbArc
 50
23.000012
 51
30.132185
  0
ARC
  5
1D7
102
{ACAD_REACTORS
330
54D
102
}
330
1F
100
AcDbEntity
  8
LC-009-100-D00-0
 62
     7
370
    13
100
AcDbCircle
 10
1513.445748
 20
1760.866711
 30
0.0
 40
5.99999999999999
100
AcDbArc
 50
30.132185
 51
44.000025
  0
ARC
  5
1D8
102
{ACAD_REACTORS
330
54D
102
}
330
1F
100
AcDbEntity
  8
LC-002-002-----0
 62
     7
370
    50
100
AcDbCircle
 10
1513.445748
 20
1760.866711
 30
0.0
 40
5.999999999999982
100
AcDbArc
 50
44.000025
 51
65.0
  0
LINE
  5
1D9
102
{ACAD_REACTORS
330
54D
102
}
330
1F
100
AcDbEntity
  8
LC-002-002-----0
 62
     7
370
    50
100
AcDbLine
 10
1515.981458
 20
1766.304557
 30
0.0
 11
1515.241717
 21
1766.649504
 31
0.0
  0
LINE
  5
1DA
102
{ACAD_REACTORS
330
54D
102
}
330
1F
100
AcDbEntity
  8
LC-009-100-D00-0
 62
     7
370
    13
100
AcDbLine
 10
1523.516131
 20
1644.410947
 30
0.0
 11
1523.515775
 21
1644.42112
 31
0.0
  0
LINE
  5
1DB
102
{ACAD_REACTORS
330
54D
102
}
330
1F
100
AcDbEntity
  8
LC-002-002-----0
 62
     7
370
    50
100
AcDbLine
 10
1519.973938
 20
1897.609923
 30
0.0
 11
1520.01333
 21
1897.736677
 31
0.0
  0
LINE
  5
1DC
102
{ACAD_REACTORS
330
54D
102
}
330
1F
100
AcDbEntity
  8
LC-002-002-----0
 62
     7
370
    50
100
AcDbLine
 10
1519.974314
 20
1897.611771
 30
0.0
 11
1519.973785
 21
1897.609175
 31
0.0
  0
LINE
  5
1DD
102
{ACAD_REACTORS
330
54D
102
}
330
1F
100
AcDbEntity
  8
LC-002-002-----0
 62
     7
370
    50
100
AcDbLine
 10
1530.159101
 20
1890.004013
 30
0.0
 11
1530.11783
 21
1888.822166
 31
0.0
  0
ARC
  5
1DE
102
{ACAD_REACTORS
330
54D
102
}
330
1F
100
AcDbEntity
  8
LC-002-002-----0
 62
     7
370
    50
100
AcDbCircle
 10
1529.118439
 20
1888.857065
 30
0.0
 40
1.000000000000067
100
AcDbArc
 50
275.0
 51
302.666667
  0
ARC
  5
1DF
102
{ACAD_REACTORS
330
54D
102
}
330
1F
100
AcDbEntity
  8
LC-002-002-----0
 62
     7
370
    50
100
AcDbCircle
 10
1529.118439
 20
1888.857065
 30
0.0
 40
0.9999999999998542
100
AcDbArc
 50
302.666667
 51
358.0
  0
LINE
  5
1E0
102
{ACAD_REACTORS
330
54D
102
}
330
1F
100
AcDbEntity
  8
LC-002-002-----0
 62
     7
370
    50
100
AcDbLine
 10
1529.205595
 20
1887.86087
 30
0.0
 11
1528.851361
 21
1887.829879
 31
0.0
  0
ARC
  5
1E1
102
{ACAD_REACTORS
330
54D
102
}
330
1F
100
AcDbEntity
  8
LC-002-002-----0
 62
     7
370
    50
100
AcDbCircle
 10
1528.938517
 20
1886.833684
 30
0.0
 40
1.000000000000067
100
AcDbArc
 50
95.0
 51
120.0
  0
ARC
  5
1E2
102
{ACAD_REACTORS
330
54D
102
}
330
1F
100
AcDbEntity
  8
LC-002-002-----0
 62
     7
370
    50
100
AcDbCircle
 10
1528.938517
 20
1886.833684
 30
0.0
 40
1.000000000000082
100
AcDbArc
 50
120.0
 51
170.0
  0
LINE
  5
1E3
102
{ACAD_REACTORS
330
54D
102
}
330
1F
100
AcDbEntity
  8
LC-002-002-----0
 62
     7
370
    50
100
AcDbLine
 10
1527.953709
 20
1887.007332
 30
0.0
 11
1526.357536
 21
1877.954988
 31
0.0
  0
ARC
  5
1E4
102
{ACAD_REACTORS
330
54D
102
}
330
1F
100
AcDbEntity
  8
LC-002-002-----0
 62
     7
370
    50
100
AcDbCircle
 10
1523.403113
 20
1878.475932
 30
0.0
 40
2.999999999999974
100
AcDbArc
 50
275.0
 51
350.0
  0
LINE
  5
1E5
102
{ACAD_REACTORS
330
54D
102
}
330
1F
100
AcDbEntity
  8
LC-002-002-----0
 62
     7
370
    50
100
AcDbLine
 10
1523.66458
 20
1875.487348
 30
0.0
 11
1514.086954
 21
1874.649415
 31
0.0
  0
LINE
  5
1E6
102
{ACAD_REACTORS
330
54D
102
}
330
1F
100
AcDbEntity
  8
LC-002-002-----0
 62
     7
370
    50
100
AcDbLine
 10
1534.507923
 20
1644.837977
 30
0.0
 11
1530.11783
 21
1770.553793
 31
0.0
  0
ARC
  5
1E7
102
{ACAD_REACTORS
330
54D
102
}
330
1F
100
AcDbEntity
  8
LC-002-002-----0
 62
     7
370
    50
100
AcDbCircle
 10
1697.086954
 20
1582.419939
 30
0.0
 40
3.000000000000006
100
AcDbArc
 50
274.0
 51
289.471221
  0
ARC
  5
1E8
102
{ACAD_REACTORS
330
54D
102
}
330
1F
100
AcDbEntity
  8
LC-002-002-----0
 62
     7
370
    50
100
AcDbCircle
 10
1681.086954
 20
1592.283239
 30
0.0
 40
6.0
100
AcDbArc
 50
0.0
 51
83.0
  0
LINE
  5
1E9
102
{ACAD_REACTORS
330
54D
102
}
330
1F
100
AcDbEntity
  8
LC-002-002-----0
 62
     7
370
    50
100
AcDbLine
 10
1519.442093
 20
1761.076108
 30
0.0
 11
1523.515775
 21
1644.421119
 31
0.0
  0
ARC
  5
1EA
102
{ACAD_REACTORS
330
54D
102
}
330
1F
100
AcDbEntity
  8
LC-002-002-----0
 62
     7
370
    50
100
AcDbCircle
 10
1513.445748
 20
1760.866711
 30
0.0
 40
5.999999999999957
100
AcDbArc
 50
30.097976
 51
44.000024
  0
ARC
  5
1EB
102
{ACAD_REACTORS
330
54D
102
}
330
1F
100
AcDbEntity
  8
LC-009-100-D00-0
 62
     7
370
    13
100
AcDbCircle
 10
1513.445748
 20
1760.866711
 30
0.0
 40
6.000000000000023
100
AcDbArc
 50
23.000012
 51
30.097976
  0
ARC
  5
1EC
102
{ACAD_REACTORS
330
54D
102
}
330
1F
100
AcDbEntity
  8
LC-002-002-----0
 62
     7
370
    50
100
AcDbCircle
 10
1516.086954
 20
1890.913839
 30
0.0
 40
2.000000000000263
100
AcDbArc
 50
115.000031
 51
179.999924
  0
LINE
  5
1ED
102
{ACAD_REACTORS
330
54D
102
}
330
1F
100
AcDbEntity
  8
LC-002-002-----0
 62
     7
370
    50
100
AcDbLine
 10
1516.631357
 20
1893.374454
 30
0.0
 11
1515.241717
 21
1892.726454
 31
0.0
  0
ARC
  5
1EE
102
{ACAD_REACTORS
330
54D
102
}
330
1F
100
AcDbEntity
  8
LC-002-002-----0
 62
     7
370
    50
100
AcDbCircle
 10
1681.086954
 20
1943.09272
 30
0.0
 40
6.000000000000013
100
AcDbArc
 50
277.0
 51
0.0
  0
ARC
  5
1EF
102
{ACAD_REACTORS
330
54D
102
}
330
1F
100
AcDbEntity
  8
LC-002-002-----0
 62
     7
370
    50
100
AcDbCircle
 10
1697.086954
 20
1952.95602
 30
0.0
 40
3.000000000000022
100
AcDbArc
 50
70.528779
 51
86.0
  0
ARC
  5
1F0
102
{ACAD_REACTORS
330
54D
102
}
330
1F
100
AcDbEntity
  8
LC-002-002-----0
 62
     7
370
    50
100
AcDbCircle
 10
1514.095459
 20
1898.812157
 30
0.0
 40
5.999996687600105
100
AcDbArc
 50
295.065393
 51
348.495091
  0
LINE
  5
1F1
102
{ACAD_REACTORS
330
54D
102
}
330
1F
100
AcDbEntity
  8
LC-002-002-----0
 62
     7
370
    50
100
AcDbLine
 10
1523.66458
 20
1783.88861
 30
0.0
 11
1514.086954
 21
1784.726544
 31
0.0
  0
ARC
  5
1F2
102
{ACAD_REACTORS
330
54D
102
}
330
1F
100
AcDbEntity
  8
LC-002-002-----0
 62
     7
370
    50
100
AcDbCircle
 10
1523.403113
 20
1780.900026
 30
0.0
 40
2.999999999999887
100
AcDbArc
 50
10.0
 51
85.0
  0
LINE
  5
1F3
102
{ACAD_REACTORS
330
54D
102
}
330
1F
100
AcDbEntity
  8
LC-002-002-----0
 62
     7
370
    50
100
AcDbLine
 10
1527.953709
 20
1772.368626
 30
0.0
 11
1526.357536
 21
1781.420971
 31
0.0
  0
ARC
  5
1F4
102
{ACAD_REACTORS
330
54D
102
}
330
1F
100
AcDbEntity
  8
LC-002-002-----0
 62
     7
370
    50
100
AcDbCircle
 10
1528.938517
 20
1772.542274
 30
0.0
 40
1.000000000000125
100
AcDbArc
 50
190.0
 51
265.0
  0
LINE
  5
1F5
102
{ACAD_REACTORS
330
54D
102
}
330
1F
100
AcDbEntity
  8
LC-002-002-----0
 62
     7
370
    50
100
AcDbLine
 10
1529.205595
 20
1771.515088
 30
0.0
 11
1528.851361
 21
1771.54608
 31
0.0
  0
ARC
  5
1F6
102
{ACAD_REACTORS
330
54D
102
}
330
1F
100
AcDbEntity
  8
LC-002-002-----0
 62
     7
370
    50
100
AcDbCircle
 10
1529.118439
 20
1770.518893
 30
0.0
 40
0.9999999999998408
100
AcDbArc
 50
2.0
 51
85.0
  0
ARC
  5
1F7
102
{ACAD_REACTORS
330
54D
102
}
330
1F
100
AcDbEntity
  8
LC-002-002-----0
 62
     7
370
    50
100
AcDbCircle
 10
1516.086954
 20
1768.46212
 30
0.0
 40
2.000000000000028
100
AcDbArc
 50
224.89015
 51
244.999969
  0
ARC
  5
1F8
102
{ACAD_REACTORS
330
54D
102
}
330
1F
100
AcDbEntity
  8
LC-002-002-----0
 62
     7
370
    50
100
AcDbCircle
 10
1516.086954
 20
1768.46212
 30
0.0
 40
2.000000000000079
100
AcDbArc
 50
221.098785
 51
224.89015
  0
ARC
  5
1F9
102
{ACAD_REACTORS
330
54D
102
}
330
1F
100
AcDbEntity
  8
LC-002-002-----0
 62
     7
370
    50
100
AcDbCircle
 10
1516.086954
 20
1768.46212
 30
0.0
 40
2.000000000000052
100
AcDbArc
 50
201.666656
 51
221.098785
  0
ARC
  5
1FA
102
{ACAD_REACTORS
330
54D
102
}
330
1F
100
AcDbEntity
  8
LC-009-100-D00-0
 62
     7
370
    13
100
AcDbCircle
 10
1516.086954
 20
1768.46212
 30
0.0
 40
1.99999999999996
100
AcDbArc
 50
180.000076
 51
201.666656
  0
LINE
  5
1FB
102
{ACAD_REACTORS
330
54D
102
}
330
1F
100
AcDbEntity
  8
LC-002-002-----0
 62
     7
370
    50
100
AcDbLine
 10
1520.01333
 20
1897.736677
 30
0.0
 11
1521.784397
 21
1903.435565
 31
0.0
  0
LINE
  5
1FC
102
{ACAD_REACTORS
330
54D
102
}
330
1F
100
AcDbEntity
  8
LC-002-002-----0
 62
     7
370
    50
100
AcDbLine
 10
1521.784397
 20
1903.435565
 30
0.0
 11
1524.760041
 21
1908.348629
 31
0.0
  0
LINE
  5
1FD
102
{ACAD_REACTORS
330
54D
102
}
330
1F
100
AcDbEntity
  8
LC-002-002-----0
 62
     7
370
    50
100
AcDbLine
 10
1524.760041
 20
1908.348629
 30
0.0
 11
1528.884949
 21
1912.329371
 31
0.0
  0
LINE
  5
1FE
102
{ACAD_REACTORS
330
54D
102
}
330
1F
100
AcDbEntity
  8
LC-002-002-----0
 62
     7
370
    50
100
AcDbLine
 10
1528.884949
 20
1912.329371
 30
0.0
 11
1534.025188
 21
1915.471737
 31
0.0
  0
LINE
  5
1FF
102
{ACAD_REACTORS
330
54D
102
}
330
1F
100
AcDbEntity
  8
LC-002-002-----0
 62
     7
370
    50
100
AcDbLine
 10
1534.025188
 20
1915.471737
 30
0.0
 11
1540.015504
 21
1917.899533
 31
0.0
  0
LINE
  5
200
102
{ACAD_REACTORS
330
54D
102
}
330
1F
100
AcDbEntity
  8
LC-002-002-----0
 62
     7
370
    50
100
AcDbLine
 10
1540.015504
 20
1917.899533
 30
0.0
 11
1546.683958
 21
1919.767067
 31
0.0
  0
LINE
  5
201
102
{ACAD_REACTORS
330
54D
102
}
330
1F
100
AcDbEntity
  8
LC-002-002-----0
 62
     7
370
    50
100
AcDbLine
 10
1546.683958
 20
1919.767067
 30
0.0
 11
1554.256445
 21
1921.287553
 31
0.0
  0
LINE
  5
202
102
{ACAD_REACTORS
330
54D
102
}
330
1F
100
AcDbEntity
  8
LC-002-002-----0
 62
     7
370
    50
100
AcDbLine
 10
1554.256445
 20
1921.287553
 30
0.0
 11
1562.904513
 21
1922.536682
 31
0.0
  0
LINE
  5
203
102
{ACAD_REACTORS
330
54D
102
}
330
1F
100
AcDbEntity
  8
LC-002-002-----0
 62
     7
370
    50
100
AcDbLine
 10
1564.001579
 20
1913.603796
 30
0.0
 11
1557.494092
 21
1912.676927
 31
0.0
  0
LINE
  5
204
102
{ACAD_REACTORS
330
54D
102
}
330
1F
100
AcDbEntity
  8
LC-002-002-----0
 62
     7
370
    50
100
AcDbLine
 10
1557.494092
 20
1912.676927
 30
0.0
 11
1551.756091
 21
1911.568081
 31
0.0
  0
LINE
  5
205
102
{ACAD_REACTORS
330
54D
102
}
330
1F
100
AcDbEntity
  8
LC-002-002-----0
 62
     7
370
    50
100
AcDbLine
 10
1551.756091
 20
1911.568081
 30
0.0
 11
1546.655911
 21
1910.220595
 31
0.0
  0
LINE
  5
206
102
{ACAD_REACTORS
330
54D
102
}
330
1F
100
AcDbEntity
  8
LC-002-002-----0
 62
     7
370
    50
100
AcDbLine
 10
1546.655911
 20
1910.220595
 30
0.0
 11
1542.028317
 21
1908.480585
 31
0.0
  0
LINE
  5
207
102
{ACAD_REACTORS
330
54D
102
}
330
1F
100
AcDbEntity
  8
LC-002-002-----0
 62
     7
370
    50
100
AcDbLine
 10
1542.028317
 20
1908.480585
 30
0.0
 11
1537.982006
 21
1906.218913
 31
0.0
  0
LINE
  5
208
102
{ACAD_REACTORS
330
54D
102
}
330
1F
100
AcDbEntity
  8
LC-002-002-----0
 62
     7
370
    50
100
AcDbLine
 10
1537.982006
 20
1906.218913
 30
0.0
 11
1534.655342
 21
1903.293372
 31
0.0
  0
LINE
  5
209
102
{ACAD_REACTORS
330
54D
102
}
330
1F
100
AcDbEntity
  8
LC-002-002-----0
 62
     7
370
    50
100
AcDbLine
 10
1534.655342
 20
1903.293372
 30
0.0
 11
1532.211709
 21
1899.569461
 31
0.0
  0
LINE
  5
20A
102
{ACAD_REACTORS
330
54D
102
}
330
1F
100
AcDbEntity
  8
LC-002-002-----0
 62
     7
370
    50
100
AcDbLine
 10
1532.211709
 20
1899.569461
 30
0.0
 11
1530.738308
 21
1895.059137
 31
0.0
  0
LINE
  5
20B
102
{ACAD_REACTORS
330
54D
102
}
330
1F
100
AcDbEntity
  8
LC-002-002-----0
 62
     7
370
    50
100
AcDbLine
 10
1530.738308
 20
1895.059137
 30
0.0
 11
1530.159471
 21
1890.014557
 31
0.0
  0
LINE
  5
20C
102
{ACAD_REACTORS
330
54D
102
}
330
1F
100
AcDbEntity
  8
LC-002-002-----0
 62
     7
370
    50
100
AcDbLine
 10
1567.253222
 20
1612.305322
 30
0.0
 11
1558.536575
 21
1613.566141
 31
0.0
  0
LINE
  5
20D
102
{ACAD_REACTORS
330
54D
102
}
330
1F
100
AcDbEntity
  8
LC-002-002-----0
 62
     7
370
    50
100
AcDbLine
 10
1558.536575
 20
1613.566141
 30
0.0
 11
1550.912493
 21
1615.103418
 31
0.0
  0
LINE
  5
20E
102
{ACAD_REACTORS
330
54D
102
}
330
1F
100
AcDbEntity
  8
LC-002-002-----0
 62
     7
370
    50
100
AcDbLine
 10
1550.912493
 20
1615.103418
 30
0.0
 11
1544.200009
 21
1616.997535
 31
0.0
  0
LINE
  5
20F
102
{ACAD_REACTORS
330
54D
102
}
330
1F
100
AcDbEntity
  8
LC-002-002-----0
 62
     7
370
    50
100
AcDbLine
 10
1544.200009
 20
1616.997535
 30
0.0
 11
1538.179066
 21
1619.467171
 31
0.0
  0
LINE
  5
210
102
{ACAD_REACTORS
330
54D
102
}
330
1F
100
AcDbEntity
  8
LC-002-002-----0
 62
     7
370
    50
100
AcDbLine
 10
1538.179066
 20
1619.467171
 30
0.0
 11
1533.026785
 21
1622.671721
 31
0.0
  0
LINE
  5
211
102
{ACAD_REACTORS
330
54D
102
}
330
1F
100
AcDbEntity
  8
LC-002-002-----0
 62
     7
370
    50
100
AcDbLine
 10
1533.026785
 20
1622.671721
 30
0.0
 11
1528.911376
 21
1626.742376
 31
0.0
  0
LINE
  5
212
102
{ACAD_REACTORS
330
54D
102
}
330
1F
100
AcDbEntity
  8
LC-002-002-----0
 62
     7
370
    50
100
AcDbLine
 10
1528.911376
 20
1626.742376
 30
0.0
 11
1525.971884
 21
1631.781345
 31
0.0
  0
LINE
  5
213
102
{ACAD_REACTORS
330
54D
102
}
330
1F
100
AcDbEntity
  8
LC-002-002-----0
 62
     7
370
    50
100
AcDbLine
 10
1525.971884
 20
1631.781345
 30
0.0
 11
1524.219837
 21
1637.756838
 31
0.0
  0
LINE
  5
214
102
{ACAD_REACTORS
330
54D
102
}
330
1F
100
AcDbEntity
  8
LC-002-002-----0
 62
     7
370
    50
100
AcDbLine
 10
1524.219837
 20
1637.756838
 30
0.0
 11
1523.516131
 21
1644.410947
 31
0.0
  0
LINE
  5
215
102
{ACAD_REACTORS
330
54D
102
}
330
1F
100
AcDbEntity
  8
LC-002-002-----0
 62
     7
370
    50
100
AcDbLine
 10
1534.508285
 20
1644.827674
 30
0.0
 11
1535.089758
 21
1639.77023
 31
0.0
  0
LINE
  5
216
102
{ACAD_REACTORS
330
54D
102
}
330
1F
100
AcDbEntity
  8
LC-002-002-----0
 62
     7
370
    50
100
AcDbLine
 10
1535.089758
 20
1639.77023
 30
0.0
 11
1536.572669
 21
1635.246859
 31
0.0
  0
LINE
  5
217
102
{ACAD_REACTORS
330
54D
102
}
330
1F
100
AcDbEntity
  8
LC-002-002-----0
 62
     7
370
    50
100
AcDbLine
 10
1536.572669
 20
1635.246859
 30
0.0
 11
1539.029572
 21
1631.519854
 31
0.0
  0
LINE
  5
218
102
{ACAD_REACTORS
330
54D
102
}
330
1F
100
AcDbEntity
  8
LC-002-002-----0
 62
     7
370
    50
100
AcDbLine
 10
1539.029572
 20
1631.519854
 30
0.0
 11
1542.364664
 21
1628.599712
 31
0.0
  0
LINE
  5
219
102
{ACAD_REACTORS
330
54D
102
}
330
1F
100
AcDbEntity
  8
LC-002-002-----0
 62
     7
370
    50
100
AcDbLine
 10
1542.364664
 20
1628.599712
 30
0.0
 11
1546.412784
 21
1626.345242
 31
0.0
  0
LINE
  5
21A
102
{ACAD_REACTORS
330
54D
102
}
330
1F
100
AcDbEntity
  8
LC-002-002-----0
 62
     7
370
    50
100
AcDbLine
 10
1546.412784
 20
1626.345242
 30
0.0
 11
1551.037116
 21
1624.611304
 31
0.0
  0
LINE
  5
21B
102
{ACAD_REACTORS
330
54D
102
}
330
1F
100
AcDbEntity
  8
LC-002-002-----0
 62
     7
370
    50
100
AcDbLine
 10
1551.037116
 20
1624.611304
 30
0.0
 11
1556.131809
 21
1623.267863
 31
0.0
  0
LINE
  5
21C
102
{ACAD_REACTORS
330
54D
102
}
330
1F
100
AcDbEntity
  8
LC-002-002-----0
 62
     7
370
    50
100
AcDbLine
 10
1556.131809
 20
1623.267863
 30
0.0
 11
1561.858349
 21
1622.162507
 31
0.0
  0
LINE
  5
21D
102
{ACAD_REACTORS
330
54D
102
}
330
1F
100
AcDbEntity
  8
LC-002-002-----0
 62
     7
370
    50
100
AcDbLine
 10
1561.858349
 20
1622.162507
 30
0.0
 11
1568.350309
 21
1621.238205
 31
0.0
  0
LINE
  5
21E
102
{ACAD_REACTORS
330
554
102
}
330
1F
100
AcDbEntity
  8
LC-002-002-----0
 62
     7
370
    50
100
AcDbLine
 10
1002.640981
 20
2442.25
 30
0.0
 11
1014.640981
 21
2442.25
 31
0.0
  0
INSERT
  5
238
102
{ACAD_REACTORS
330
554
102
}
330
1F
100
AcDbEntity
  8
LC-006-003-----0
 62
     7
370
    25
100
AcDbBlockReference
  2
LCDIM4
 10
0.0
 20
0.0
 30
0.0
  0
INSERT
  5
252
102
{ACAD_REACTORS
330
554
102
}
330
1F
100
AcDbEntity
  8
LC-006-003-----0
 62
     7
370
    25
100
AcDbBlockReference
  2
LCDIM5
 10
0.0
 20
0.0
 30
0.0
  0
LINE
  5
253
102
{ACAD_REACTORS
330
54D
102
}
330
1F
100
AcDbEntity
  8
LC-002-002-----0
 62
     7
370
    50
100
AcDbLine
 10
1698.086954
 20
1930.06741
 30
0.0
 11
1698.086954
 21
1955.784447
 31
0.0
  0
LINE
  5
254
102
{ACAD_REACTORS
330
54D
102
}
330
1F
100
AcDbEntity
  8
LC-002-002-----0
 62
     7
370
    50
100
AcDbLine
 10
1690.086954
 20
1944.452833
 30
0.0
 11
1690.086954
 21
1956.452833
 31
0.0
  0
INSERT
  5
26E
102
{ACAD_REACTORS
330
54D
102
}
330
1F
100
AcDbEntity
  8
LC-006-003-----0
 62
     7
370
    25
100
AcDbBlockReference
  2
LCDIM6
 10
0.0
 20
0.0
 30
0.0
  0
INSERT
  5
27D
102
{ACAD_REACTORS
330
54E
102
}
330
1F
100
AcDbEntity
  8
LC-006-003-----0
 62
     7
370
    25
100
AcDbBlockReference
  2
LCDIM7
 10
0.0
 20
0.0
 30
0.0
  0
LINE
  5
27E
102
{ACAD_REACTORS
330
551
102
}
330
1F
100
AcDbEntity
  8
LC-002-002-----0
 62
     7
370
    25
100
AcDbLine
 10
1640.628026
 20
1932.079929
 30
0.0
 11
1677.352234
 21
1936.589095
 31
0.0
  0
LINE
  5
27F
102
{ACAD_REACTORS
330
550
102
}
330
1F
100
AcDbEntity
  8
LC-002-002-----0
 62
     7
370
    25
100
AcDbLine
 10
1471.444272
 20
1794.189835
 30
0.0
 11
1471.444272
 21
1865.18611
 31
0.0
  0
LINE
  5
280
102
{ACAD_REACTORS
330
552
102
}
330
1F
100
AcDbEntity
  8
LC-002-002-----0
 62
     7
370
    25
100
AcDbLine
 10
1389.265693
 20
2004.016506
 30
0.0
 11
1389.857817
 21
2005.153966
 31
0.0
  0
LINE
  5
281
102
{ACAD_REACTORS
330
552
102
}
330
1F
100
AcDbEntity
  8
LC-002-002-----0
 62
     7
370
    25
100
AcDbLine
 10
1391.574693
 20
2004.016506
 30
0.0
 11
1392.166817
 21
2005.153966
 31
0.0
  0
LINE
  5
282
102
{ACAD_REACTORS
330
552
102
}
330
1F
100
AcDbEntity
  8
LC-002-002-----0
 62
     7
370
    25
100
AcDbLine
 10
1393.883693
 20
2004.016506
 30
0.0
 11
1394.475817
 21
2005.153966
 31
0.0
  0
LINE
  5
283
102
{ACAD_REACTORS
330
552
102
}
330
1F
100
AcDbEntity
  8
LC-002-002-----0
 62
     7
370
    25
100
AcDbLine
 10
1396.192693
 20
2004.016506
 30
0.0
 11
1396.784817
 21
2005.153966
 31
0.0
  0
LINE
  5
284
102
{ACAD_REACTORS
330
552
102
}
330
1F
100
AcDbEntity
  8
LC-002-002-----0
 62
     7
370
    25
100
AcDbLine
 10
1390.420633
 20
1957.73862
 30
0.0
 11
1391.012758
 21
1958.87608
 31
0.0
  0
LINE
  5
285
102
{ACAD_REACTORS
330
552
102
}
330
1F
100
AcDbEntity
  8
LC-002-002-----0
 62
     7
370
    25
100
AcDbLine
 10
1392.729633
 20
1957.73862
 30
0.0
 11
1393.321758
 21
1958.87608
 31
0.0
  0
LINE
  5
286
102
{ACAD_REACTORS
330
552
102
}
330
1F
100
AcDbEntity
  8
LC-002-002-----0
 62
     7
370
    25
100
AcDbLine
 10
1395.038633
 20
1957.73862
 30
0.0
 11
1395.630758
 21
1958.87608
 31
0.0
  0
LINE
  5
287
102
{ACAD_REACTORS
330
552
102
}
330
1F
100
AcDbEntity
  8
LC-002-002-----0
 62
     7
370
    25
100
AcDbLine
 10
1397.347633
 20
1957.73862
 30
0.0
 11
1397.939758
 21
1958.87608
 31
0.0
  0
LINE
  5
288
102
{ACAD_REACTORS
330
552
102
}
330
1F
100
AcDbEntity
  8
LC-002-002-----0
 62
     7
370
    25
100
AcDbLine
 10
1419.484725
 20
2003.846293
 30
0.0
 11
1398.220725
 21
2003.846293
 31
0.0
  0
LINE
  5
289
102
{ACAD_REACTORS
330
552
102
}
330
1F
100
AcDbEntity
  8
LC-002-002-----0
 62
     7
370
    25
100
AcDbLine
 10
1388.984725
 20
2003.846293
 30
0.0
 11
1388.484725
 21
2003.846293
 31
0.0
  0
LINE
  5
28A
102
{ACAD_REACTORS
330
552
102
}
330
1F
100
AcDbEntity
  8
LC-002-002-----0
 62
     7
370
    25
100
AcDbLine
 10
1388.484725
 20
1959.046293
 30
0.0
 11
1388.484725
 21
2003.846293
 31
0.0
  0
LINE
  5
28B
102
{ACAD_REACTORS
330
552
102
}
330
1F
100
AcDbEntity
  8
LC-002-002-----0
 62
     7
370
    25
100
AcDbLine
 10
1419.484725
 20
1959.068777
 30
0.0
 11
1415.484725
 21
1959.068777
 31
0.0
  0
LINE
  5
28C
102
{ACAD_REACTORS
330
552
102
}
330
1F
100
AcDbEntity
  8
LC-002-002-----0
 62
     7
370
    25
100
AcDbLine
 10
1415.484725
 20
1959.046293
 30
0.0
 11
1398.220725
 21
1959.046293
 31
0.0
  0
LINE
  5
28D
102
{ACAD_REACTORS
330
552
102
}
330
1F
100
AcDbEntity
  8
LC-002-002-----0
 62
     7
370
    25
100
AcDbLine
 10
1388.984725
 20
1959.046293
 30
0.0
 11
1388.484725
 21
1959.046293
 31
0.0
  0
LINE
  5
28E
102
{ACAD_REACTORS
330
553
102
}
330
1F
100
AcDbEntity
  8
LC-002-002-----0
 62
     7
370
    25
100
AcDbLine
 10
1462.06828
 20
1880.531576
 30
0.0
 11
1461.884725
 21
1880.531576
 31
0.0
  0
LINE
  5
28F
102
{ACAD_REACTORS
330
553
102
}
330
1F
100
AcDbEntity
  8
LC-002-002-----0
 62
     7
370
    25
100
AcDbLine
 10
1417.084725
 20
1856.187973
 30
0.0
 11
1417.084725
 21
1880.531625
 31
0.0
  0
LINE
  5
290
102
{ACAD_REACTORS
330
553
102
}
330
1F
100
AcDbEntity
  8
LC-002-002-----0
 62
     7
370
    25
100
AcDbLine
 10
1417.484725
 20
1829.687973
 30
0.0
 11
1417.484725
 21
1855.787973
 31
0.0
  0
LINE
  5
291
102
{ACAD_REACTORS
330
552
102
}
330
1F
100
AcDbEntity
  8
LC-002-002-----0
 62
     7
370
    25
100
AcDbLine
 10
1419.510366
 20
1955.046293
 30
0.0
 11
1419.510366
 21
1959.093666
 31
0.0
  0
ARC
  5
292
102
{ACAD_REACTORS
330
553
102
}
330
1F
100
AcDbEntity
  8
LC-004-002-RND-0
 62
     7
370
    25
100
AcDbCircle
 10
1439.484725
 20
1829.687973
 30
0.0
 40
22.0
100
AcDbArc
 50
180.0
 51
270.0
  0
LINE
  5
293
102
{ACAD_REACTORS
330
552
102
}
330
1F
100
AcDbEntity
  8
LC-002-002-----0
 62
     7
370
    25
100
AcDbLine
 10
1459.484725
 20
1903.687973
 30
0.0
 11
1459.484725
 21
1963.447293
 31
0.0
  0
LINE
  5
294
102
{ACAD_REACTORS
330
553
102
}
330
1F
100
AcDbEntity
  8
LC-002-002-----0
 62
     7
370
    25
100
AcDbLine
 10
1461.884725
 20
1858.141122
 30
0.0
 11
1461.884725
 21
1880.531625
 31
0.0
  0
LINE
  5
295
102
{ACAD_REACTORS
330
552
102
}
330
1F
100
AcDbEntity
  8
LC-002-002-----0
 62
     7
370
    25
100
AcDbLine
 10
1421.886853
 20
2001.444165
 30
0.0
 11
1419.484986
 21
2003.846033
 31
0.0
  0
LINE
  5
296
102
{ACAD_REACTORS
330
553
102
}
330
1F
100
AcDbEntity
  8
LC-002-002-----0
 62
     7
370
    25
100
AcDbLine
 10
1415.033235
 20
1883.129754
 30
0.0
 11
1416.53323
 21
1883.995776
 31
0.0
  0
LINE
  5
297
102
{ACAD_REACTORS
330
553
102
}
330
1F
100
AcDbEntity
  8
LC-002-002-----0
 62
     7
370
    25
100
AcDbLine
 10
1415.033235
 20
1881.397703
 30
0.0
 11
1416.53323
 21
1882.263725
 31
0.0
  0
LINE
  5
298
102
{ACAD_REACTORS
330
553
102
}
330
1F
100
AcDbEntity
  8
LC-002-002-----0
 62
     7
370
    25
100
AcDbLine
 10
1462.06828
 20
1883.995678
 30
0.0
 11
1463.26737
 21
1884.687973
 31
0.0
  0
LINE
  5
299
102
{ACAD_REACTORS
330
553
102
}
330
1F
100
AcDbEntity
  8
LC-002-002-----0
 62
     7
370
    25
100
AcDbLine
 10
1462.06828
 20
1882.263627
 30
0.0
 11
1463.568274
 21
1883.129649
 31
0.0
  0
LINE
  5
29A
102
{ACAD_REACTORS
330
553
102
}
330
1F
100
AcDbEntity
  8
LC-002-002-----0
 62
     7
370
    25
100
AcDbLine
 10
1462.06828
 20
1880.531576
 30
0.0
 11
1463.568274
 21
1881.397598
 31
0.0
  0
LINE
  5
29B
102
{ACAD_REACTORS
330
552
102
}
330
1F
100
AcDbEntity
  8
LC-002-002-----0
 62
     7
370
    25
100
AcDbLine
 10
1397.347633
 20
2005.153966
 30
0.0
 11
1397.939758
 21
2004.016506
 31
0.0
  0
LINE
  5
29C
102
{ACAD_REACTORS
330
552
102
}
330
1F
100
AcDbEntity
  8
LC-002-002-----0
 62
     7
370
    25
100
AcDbLine
 10
1395.038633
 20
2005.153966
 30
0.0
 11
1395.630758
 21
2004.016506
 31
0.0
  0
LINE
  5
29D
102
{ACAD_REACTORS
330
552
102
}
330
1F
100
AcDbEntity
  8
LC-002-002-----0
 62
     7
370
    25
100
AcDbLine
 10
1392.729633
 20
2005.153966
 30
0.0
 11
1393.321758
 21
2004.016506
 31
0.0
  0
LINE
  5
29E
102
{ACAD_REACTORS
330
552
102
}
330
1F
100
AcDbEntity
  8
LC-002-002-----0
 62
     7
370
    25
100
AcDbLine
 10
1390.420633
 20
2005.153966
 30
0.0
 11
1391.012758
 21
2004.016506
 31
0.0
  0
LINE
  5
29F
102
{ACAD_REACTORS
330
552
102
}
330
1F
100
AcDbEntity
  8
LC-002-002-----0
 62
     7
370
    25
100
AcDbLine
 10
1396.192693
 20
1958.87608
 30
0.0
 11
1396.784817
 21
1957.73862
 31
0.0
  0
LINE
  5
2A0
102
{ACAD_REACTORS
330
552
102
}
330
1F
100
AcDbEntity
  8
LC-002-002-----0
 62
     7
370
    25
100
AcDbLine
 10
1393.883693
 20
1958.87608
 30
0.0
 11
1394.475817
 21
1957.73862
 31
0.0
  0
LINE
  5
2A1
102
{ACAD_REACTORS
330
552
102
}
330
1F
100
AcDbEntity
  8
LC-002-002-----0
 62
     7
370
    25
100
AcDbLine
 10
1391.574693
 20
1958.87608
 30
0.0
 11
1392.166817
 21
1957.73862
 31
0.0
  0
LINE
  5
2A2
102
{ACAD_REACTORS
330
552
102
}
330
1F
100
AcDbEntity
  8
LC-002-002-----0
 62
     7
370
    25
100
AcDbLine
 10
1389.265693
 20
1958.87608
 30
0.0
 11
1389.857817
 21
1957.73862
 31
0.0
  0
LINE
  5
2A3
102
{ACAD_REACTORS
330
553
102
}
330
1F
100
AcDbEntity
  8
LC-002-002-----0
 62
     7
370
    25
100
AcDbLine
 10
1461.884725
 20
1858.141122
 30
0.0
 11
1463.604756
 21
1858.455358
 31
0.0
  0
LINE
  5
2A4
102
{ACAD_REACTORS
330
553
102
}
330
1F
100
AcDbEntity
  8
LC-002-002-----0
 62
     7
370
    25
100
AcDbLine
 10
1470.741028
 20
1865.18611
 30
0.0
 11
1471.444272
 21
1865.18611
 31
0.0
  0
LINE
  5
2A5
102
{ACAD_REACTORS
330
553
102
}
330
1F
100
AcDbEntity
  8
LC-002-002-----0
 62
     7
370
    25
100
AcDbLine
 10
1463.568274
 20
1883.129754
 30
0.0
 11
1462.06828
 21
1883.995776
 31
0.0
  0
LINE
  5
2A6
102
{ACAD_REACTORS
330
553
102
}
330
1F
100
AcDbEntity
  8
LC-002-002-----0
 62
     7
370
    25
100
AcDbLine
 10
1463.568274
 20
1881.397703
 30
0.0
 11
1462.06828
 21
1882.263725
 31
0.0
  0
LINE
  5
2A7
102
{ACAD_REACTORS
330
553
102
}
330
1F
100
AcDbEntity
  8
LC-002-002-----0
 62
     7
370
    25
100
AcDbLine
 10
1416.53323
 20
1883.995678
 30
0.0
 11
1415.334139
 21
1884.687973
 31
0.0
  0
LINE
  5
2A8
102
{ACAD_REACTORS
330
553
102
}
330
1F
100
AcDbEntity
  8
LC-002-002-----0
 62
     7
370
    25
100
AcDbLine
 10
1416.53323
 20
1882.263627
 30
0.0
 11
1415.033235
 21
1883.129649
 31
0.0
  0
LINE
  5
2A9
102
{ACAD_REACTORS
330
553
102
}
330
1F
100
AcDbEntity
  8
LC-002-002-----0
 62
     7
370
    25
100
AcDbLine
 10
1416.53323
 20
1880.531576
 30
0.0
 11
1415.033235
 21
1881.397598
 31
0.0
  0
LINE
  5
2AA
102
{ACAD_REACTORS
330
553
102
}
330
1F
100
AcDbEntity
  8
LC-002-002-----0
 62
     7
370
    25
100
AcDbLine
 10
1439.484725
 20
1807.687973
 30
0.0
 11
1453.17591
 21
1807.687973
 31
0.0
  0
LINE
  5
2AB
102
{ACAD_REACTORS
330
553
102
}
330
1F
100
AcDbEntity
  8
LC-002-002-----0
 62
     7
370
    25
100
AcDbLine
 10
1470.741028
 20
1794.189835
 30
0.0
 11
1471.444272
 21
1794.189835
 31
0.0
  0
LINE
  5
2AC
102
{ACAD_REACTORS
330
553
102
}
330
1F
100
AcDbEntity
  8
LC-002-002-----0
 62
     7
370
    25
100
AcDbLine
 10
1460.985892
 20
1801.399034
 30
0.0
 11
1463.604756
 21
1800.920588
 31
0.0
  0
LINE
  5
2AD
102
{ACAD_REACTORS
330
553
102
}
330
1F
100
AcDbEntity
  8
LC-002-002-----0
 62
     7
370
    25
100
AcDbLine
 10
1417.084753
 20
1856.187946
 30
0.0
 11
1417.484833
 21
1855.787865
 31
0.0
  0
ARC
  5
2AE
102
{ACAD_REACTORS
330
552
102
}
330
1F
100
AcDbEntity
  8
LC-002-002-----0
 62
     7
370
    25
100
AcDbCircle
 10
1398.220725
 20
1958.729293
 30
0.0
 40
0.3170000000000073
100
AcDbArc
 50
90.0
 51
152.36046
  0
ARC
  5
2AF
102
{ACAD_REACTORS
330
552
102
}
330
1F
100
AcDbEntity
  8
LC-002-002-----0
 62
     7
370
    25
100
AcDbCircle
 10
1398.220725
 20
2004.163293
 30
0.0
 40
0.3170000000000512
100
AcDbArc
 50
207.567177
 51
270.0
  0
ARC
  5
2B0
102
{ACAD_REACTORS
330
552
102
}
330
1F
100
AcDbEntity
  8
LC-002-002-----0
 62
     7
370
    25
100
AcDbCircle
 10
1397.066225
 20
1957.884561
 30
0.0
 40
0.3170000000002538
100
AcDbArc
 50
207.317979
 51
332.682021
  0
ARC
  5
2B1
102
{ACAD_REACTORS
330
552
102
}
330
1F
100
AcDbEntity
  8
LC-002-002-----0
 62
     7
370
    25
100
AcDbCircle
 10
1397.066225
 20
2005.008025
 30
0.0
 40
0.3169999999998988
100
AcDbArc
 50
27.394588
 51
152.605412
  0
ARC
  5
2B2
102
{ACAD_REACTORS
330
552
102
}
330
1F
100
AcDbEntity
  8
LC-002-002-----0
 62
     7
370
    25
100
AcDbCircle
 10
1395.911725
 20
2004.163293
 30
0.0
 40
0.3169999999996481
100
AcDbArc
 50
207.567177
 51
332.432823
  0
ARC
  5
2B3
102
{ACAD_REACTORS
330
552
102
}
330
1F
100
AcDbEntity
  8
LC-002-002-----0
 62
     7
370
    25
100
AcDbCircle
 10
1395.911725
 20
1958.729293
 30
0.0
 40
0.3169999999998827
100
AcDbArc
 50
27.63954
 51
152.36046
  0
ARC
  5
2B4
102
{ACAD_REACTORS
330
552
102
}
330
1F
100
AcDbEntity
  8
LC-002-002-----0
 62
     7
370
    25
100
AcDbCircle
 10
1394.757225
 20
1957.884561
 30
0.0
 40
0.3170000000000585
100
AcDbArc
 50
207.317979
 51
332.682021
  0
ARC
  5
2B5
102
{ACAD_REACTORS
330
552
102
}
330
1F
100
AcDbEntity
  8
LC-002-002-----0
 62
     7
370
    25
100
AcDbCircle
 10
1394.757225
 20
2005.008025
 30
0.0
 40
0.3170000000002878
100
AcDbArc
 50
27.394588
 51
152.605412
  0
ARC
  5
2B6
102
{ACAD_REACTORS
330
552
102
}
330
1F
100
AcDbEntity
  8
LC-002-002-----0
 62
     7
370
    25
100
AcDbCircle
 10
1393.602725
 20
2004.163293
 30
0.0
 40
0.3170000000000334
100
AcDbArc
 50
207.567177
 51
332.432823
  0
ARC
  5
2B7
102
{ACAD_REACTORS
330
552
102
}
330
1F
100
AcDbEntity
  8
LC-002-002-----0
 62
     7
370
    25
100
AcDbCircle
 10
1393.602725
 20
1958.729293
 30
0.0
 40
0.3169999999998827
100
AcDbArc
 50
27.63954
 51
152.36046
  0
ARC
  5
2B8
102
{ACAD_REACTORS
330
552
102
}
330
1F
100
AcDbEntity
  8
LC-002-002-----0
 62
     7
370
    25
100
AcDbCircle
 10
1392.448225
 20
1957.884561
 30
0.0
 40
0.3170000000000585
100
AcDbArc
 50
207.317979
 51
332.682021
  0
ARC
  5
2B9
102
{ACAD_REACTORS
330
552
102
}
330
1F
100
AcDbEntity
  8
LC-002-002-----0
 62
     7
370
    25
100
AcDbCircle
 10
1392.448225
 20
2005.008025
 30
0.0
 40
0.3169999999998988
100
AcDbArc
 50
27.394588
 51
152.605412
  0
ARC
  5
2BA
102
{ACAD_REACTORS
330
552
102
}
330
1F
100
AcDbEntity
  8
LC-002-002-----0
 62
     7
370
    25
100
AcDbCircle
 10
1391.293725
 20
2004.163293
 30
0.0
 40
0.3170000000000334
100
AcDbArc
 50
207.567177
 51
332.432823
  0
ARC
  5
2BB
102
{ACAD_REACTORS
330
552
102
}
330
1F
100
AcDbEntity
  8
LC-002-002-----0
 62
     7
370
    25
100
AcDbCircle
 10
1391.293725
 20
1958.729293
 30
0.0
 40
0.3169999999998827
100
AcDbArc
 50
27.63954
 51
152.36046
  0
ARC
  5
2BC
102
{ACAD_REACTORS
330
552
102
}
330
1F
100
AcDbEntity
  8
LC-002-002-----0
 62
     7
370
    25
100
AcDbCircle
 10
1390.139225
 20
1957.884561
 30
0.0
 40
0.3169999999998498
100
AcDbArc
 50
207.317979
 51
332.682021
  0
ARC
  5
2BD
102
{ACAD_REACTORS
330
552
102
}
330
1F
100
AcDbEntity
  8
LC-002-002-----0
 62
     7
370
    25
100
AcDbCircle
 10
1390.139225
 20
2005.008025
 30
0.0
 40
0.3169999999998988
100
AcDbArc
 50
27.394588
 51
152.605412
  0
ARC
  5
2BE
102
{ACAD_REACTORS
330
552
102
}
330
1F
100
AcDbEntity
  8
LC-002-002-----0
 62
     7
370
    25
100
AcDbCircle
 10
1388.984725
 20
1958.729293
 30
0.0
 40
0.3169999999996908
100
AcDbArc
 50
27.63954
 51
90.0
  0
ARC
  5
2BF
102
{ACAD_REACTORS
330
552
102
}
330
1F
100
AcDbEntity
  8
LC-002-002-----0
 62
     7
370
    25
100
AcDbCircle
 10
1388.984725
 20
2004.163293
 30
0.0
 40
0.3170000000000073
100
AcDbArc
 50
270.0
 51
332.432823
  0
ARC
  5
2C0
102
{ACAD_REACTORS
330
552
102
}
330
1F
100
AcDbEntity
  8
LC-002-002-----0
 62
     7
370
    25
100
AcDbCircle
 10
1421.484725
 20
1963.446293
 30
0.0
 40
37.99999999999973
100
AcDbArc
 50
0.000006
 51
89.393653
  0
ARC
  5
2C1
102
{ACAD_REACTORS
330
553
102
}
330
1F
100
AcDbEntity
  8
LC-002-002-----0
 62
     7
370
    25
100
AcDbCircle
 10
1462.154082
 20
1807.793198
 30
0.0
 40
6.500000000000005
100
AcDbArc
 50
199.07704
 51
259.645823
  0
ARC
  5
2C2
102
{ACAD_REACTORS
330
553
102
}
330
1F
100
AcDbEntity
  8
LC-002-002-----0
 62
     7
370
    25
100
AcDbCircle
 10
1453.17591
 20
1804.687973
 30
0.0
 40
2.999999999999865
100
AcDbArc
 50
19.055448
 51
90.0
  0
ARC
  5
2C3
102
{ACAD_REACTORS
330
553
102
}
330
1F
100
AcDbEntity
  8
LC-002-002-----0
 62
     7
370
    25
100
AcDbCircle
 10
1470.741028
 20
1796.189835
 30
0.0
 40
1.999999999999977
100
AcDbArc
 50
244.152631
 51
270.0
  0
ARC
  5
2C4
102
{ACAD_REACTORS
330
553
102
}
330
1F
100
AcDbEntity
  8
LC-002-002-----0
 62
     7
370
    25
100
AcDbCircle
 10
1470.741028
 20
1863.18611
 30
0.0
 40
2.0
100
AcDbArc
 50
90.0
 51
115.847369
  0
ARC
  5
2C5
102
{ACAD_REACTORS
330
553
102
}
330
1F
100
AcDbEntity
  8
LC-002-002-----0
 62
     7
370
    25
100
AcDbCircle
 10
1472.484725
 20
1799.789769
 30
0.0
 40
5.999999999999973
100
AcDbArc
 50
196.283517
 51
244.155028
  0
ARC
  5
2C6
102
{ACAD_REACTORS
330
553
102
}
330
1F
100
AcDbEntity
  8
LC-002-002-----0
 62
     7
370
    25
100
AcDbCircle
 10
1472.484725
 20
1859.586177
 30
0.0
 40
5.999999999999802
100
AcDbArc
 50
115.844972
 51
163.716483
  0
ARC
  5
2C7
102
{ACAD_REACTORS
330
553
102
}
330
1F
100
AcDbEntity
  8
LC-002-002-----0
 62
     7
370
    25
100
AcDbCircle
 10
1462.88591
 20
1796.98571
 30
0.0
 40
3.999999999999933
100
AcDbArc
 50
16.281751
 51
79.647048
  0
ARC
  5
2C8
102
{ACAD_REACTORS
330
553
102
}
330
1F
100
AcDbEntity
  8
LC-002-002-----0
 62
     7
370
    25
100
AcDbCircle
 10
1462.88591
 20
1862.390236
 30
0.0
 40
3.999999999999939
100
AcDbArc
 50
280.352952
 51
343.718249
  0
INSERT
  5
2CD
102
{ACAD_REACTORS
330
552
102
}
330
1F
100
AcDbEntity
  8
LC-002-002-----0
 62
     7
370
    25
100
AcDbBlockReference
  2
POLY1
 10
0.0
 20
0.0
 30
0.0
  0
LINE
  5
2CE
102
{ACAD_REACTORS
330
552
102
}
330
1F
100
AcDbEntity
  8
LC-002-002-----0
 62
     7
370
    25
100
AcDbLine
 10
1419.484725
 20
1955.046293
 30
0.0
 11
1419.484725
 21
1903.687973
 31
0.0
  0
LINE
  5
2CF
102
{ACAD_REACTORS
330
553
102
}
330
1F
100
AcDbEntity
  8
LC-002-002-----0
 62
     7
370
    25
100
AcDbLine
 10
1411.779932
 20
1887.187973
 30
0.0
 11
1411.779932
 21
1884.687973
 31
0.0
  0
LINE
  5
2D0
102
{ACAD_REACTORS
330
553
102
}
330
1F
100
AcDbEntity
  8
LC-002-002-----0
 62
     7
370
    25
100
AcDbLine
 10
1412.529932
 20
1888.187973
 30
0.0
 11
1412.529932
 21
1887.937973
 31
0.0
  0
LINE
  5
2D1
102
{ACAD_REACTORS
330
553
102
}
330
1F
100
AcDbEntity
  8
LC-002-002-----0
 62
     7
370
    25
100
AcDbLine
 10
1413.684725
 20
1888.187973
 30
0.0
 11
1413.684725
 21
1901.687973
 31
0.0
  0
LINE
  5
2D2
102
{ACAD_REACTORS
330
553
102
}
330
1F
100
AcDbEntity
  8
LC-002-002-----0
 62
     7
370
    25
100
AcDbLine
 10
1465.284725
 20
1888.187973
 30
0.0
 11
1465.284725
 21
1901.687973
 31
0.0
  0
LINE
  5
2D3
102
{ACAD_REACTORS
330
553
102
}
330
1F
100
AcDbEntity
  8
LC-002-002-----0
 62
     7
370
    25
100
AcDbLine
 10
1466.439519
 20
1888.187973
 30
0.0
 11
1466.439519
 21
1887.937973
 31
0.0
  0
LINE
  5
2D4
102
{ACAD_REACTORS
330
553
102
}
330
1F
100
AcDbEntity
  8
LC-002-002-----0
 62
     7
370
    25
100
AcDbLine
 10
1467.189519
 20
1887.187973
 30
0.0
 11
1467.189519
 21
1884.687973
 31
0.0
  0
LINE
  5
2D5
102
{ACAD_REACTORS
330
553
102
}
330
1F
100
AcDbEntity
  8
LC-002-002-----0
 62
     7
370
    25
100
AcDbLine
 10
1412.529933
 20
1887.937974
 30
0.0
 11
1411.779933
 21
1887.187974
 31
0.0
  0
LINE
  5
2D6
102
{ACAD_REACTORS
330
553
102
}
330
1F
100
AcDbEntity
  8
LC-002-002-----0
 62
     7
370
    25
100
AcDbLine
 10
1463.284725
 20
1903.687973
 30
0.0
 11
1415.684725
 21
1903.687973
 31
0.0
  0
LINE
  5
2D7
102
{ACAD_REACTORS
330
553
102
}
330
1F
100
AcDbEntity
  8
LC-002-002-----0
 62
     7
370
    25
100
AcDbLine
 10
1466.439501
 20
1888.187973
 30
0.0
 11
1412.52995
 21
1888.187973
 31
0.0
  0
LINE
  5
2D8
102
{ACAD_REACTORS
330
553
102
}
330
1F
100
AcDbEntity
  8
LC-002-002-----0
 62
     7
370
    25
100
AcDbLine
 10
1467.189519
 20
1884.687973
 30
0.0
 11
1411.779932
 21
1884.687973
 31
0.0
  0
LINE
  5
2D9
102
{ACAD_REACTORS
330
553
102
}
330
1F
100
AcDbEntity
  8
LC-002-002-----0
 62
     7
370
    25
100
AcDbLine
 10
1466.439517
 20
1887.937974
 30
0.0
 11
1467.189518
 21
1887.187974
 31
0.0
  0
ARC
  5
2DA
102
{ACAD_REACTORS
330
553
102
}
330
1F
100
AcDbEntity
  8
LC-002-002-----0
 62
     7
370
    25
100
AcDbCircle
 10
1463.284725
 20
1901.687973
 30
0.0
 40
2.0
100
AcDbArc
 50
0.0
 51
90.0
  0
ARC
  5
2DB
102
{ACAD_REACTORS
330
553
102
}
330
1F
100
AcDbEntity
  8
LC-002-002-----0
 62
     7
370
    25
100
AcDbCircle
 10
1415.684725
 20
1901.687973
 30
0.0
 40
2.0
100
AcDbArc
 50
90.0
 51
180.0
  0
LINE
  5
2DC
102
{ACAD_REACTORS
330
553
102
}
330
1F
100
AcDbEntity
  8
LC-002-002-----0
 62
     7
370
    25
100
AcDbLine
 10
1462.697112
 20
1888.187973
 30
0.0
 11
1462.697112
 21
1901.687973
 31
0.0
  0
INSERT
  5
2EC
102
{ACAD_REACTORS
330
553
102
}
330
1F
100
AcDbEntity
  8
LC-002-002-----0
 62
     7
370
    25
100
AcDbBlockReference
  2
POLY2
 10
0.0
 20
0.0
 30
0.0
  0
LINE
  5
2ED
102
{ACAD_REACTORS
330
553
102
}
330
1F
100
AcDbEntity
  8
LC-002-002-----0
 62
     7
370
    25
100
AcDbLine
 10
1439.483273
 20
1888.187973
 30
0.0
 11
1439.483273
 21
1901.687973
 31
0.0
  0
INSERT
  5
2FD
102
{ACAD_REACTORS
330
553
102
}
330
1F
100
AcDbEntity
  8
LC-002-002-----0
 62
     7
370
    25
100
AcDbBlockReference
  2
POLY3
 10
0.0
 20
0.0
 30
0.0
  0
LINE
  5
2FE
102
{ACAD_REACTORS
330
553
102
}
330
1F
100
AcDbEntity
  8
LC-002-002-----0
 62
     7
370
    25
100
AcDbLine
 10
1416.272231
 20
1901.687973
 30
0.0
 11
1416.272231
 21
1888.187973
 31
0.0
  0
INSERT
  5
30E
102
{ACAD_REACTORS
330
553
102
}
330
1F
100
AcDbEntity
  8
LC-002-002-----0
 62
     7
370
    25
100
AcDbBlockReference
  2
POLY4
 10
0.0
 20
0.0
 30
0.0
  0
LINE
  5
30F
102
{ACAD_REACTORS
330
550
102
}
330
1F
100
AcDbEntity
  8
LC-002-002-----0
 62
     7
370
    25
100
AcDbLine
 10
1514.086954
 20
1884.687973
 30
0.0
 11
1514.086954
 21
1774.687973
 31
0.0
  0
LINE
  5
310
102
{ACAD_REACTORS
330
550
102
}
330
1F
100
AcDbEntity
  8
LC-002-002-----0
 62
     7
370
    25
100
AcDbLine
 10
1510.086954
 20
1774.687973
 30
0.0
 11
1514.086954
 21
1774.687973
 31
0.0
  0
LINE
  5
311
102
{ACAD_REACTORS
330
550
102
}
330
1F
100
AcDbEntity
  8
LC-002-002-----0
 62
     7
370
    25
100
AcDbLine
 10
1471.444272
 20
1792.187973
 30
0.0
 11
1471.444272
 21
1867.187973
 31
0.0
  0
LINE
  5
312
102
{ACAD_REACTORS
330
550
102
}
330
1F
100
AcDbEntity
  8
LC-002-002-----0
 62
     7
370
    25
100
AcDbLine
 10
1473.944273
 20
1790.183009
 30
0.0
 11
1473.944273
 21
1792.187973
 31
0.0
  0
LINE
  5
313
102
{ACAD_REACTORS
330
550
102
}
330
1F
100
AcDbEntity
  8
LC-002-002-----0
 62
     7
370
    25
100
AcDbLine
 10
1478.274047
 20
1786.938583
 30
0.0
 11
1479.284396
 21
1785.188608
 31
0.0
  0
LINE
  5
314
102
{ACAD_REACTORS
330
550
102
}
330
1F
100
AcDbEntity
  8
LC-002-002-----0
 62
     7
370
    25
100
AcDbLine
 10
1473.944273
 20
1792.187973
 30
0.0
 11
1471.444272
 21
1792.187973
 31
0.0
  0
LINE
  5
315
102
{ACAD_REACTORS
330
550
102
}
330
1F
100
AcDbEntity
  8
LC-002-002-----0
 62
     7
370
    25
100
AcDbLine
 10
1484.480915
 20
1782.187973
 30
0.0
 11
1499.944272
 21
1782.187973
 31
0.0
  0
LINE
  5
316
102
{ACAD_REACTORS
330
550
102
}
330
1F
100
AcDbEntity
  8
LC-002-002-----0
 62
     7
370
    25
100
AcDbLine
 10
1509.626731
 20
1774.687973
 30
0.0
 11
1510.086954
 21
1774.687973
 31
0.0
  0
ARC
  5
317
102
{ACAD_REACTORS
330
550
102
}
330
1F
100
AcDbEntity
  8
LC-002-002-----0
 62
     7
370
    25
100
AcDbCircle
 10
1499.944272
 20
1778.187973
 30
0.0
 40
3.999999999999869
100
AcDbArc
 50
14.492147
 51
90.0
  0
ARC
  5
318
102
{ACAD_REACTORS
330
550
102
}
330
1F
100
AcDbEntity
  8
LC-002-002-----0
 62
     7
370
    25
100
AcDbCircle
 10
1509.626731
 20
1780.687973
 30
0.0
 40
6.000000000000098
100
AcDbArc
 50
194.469452
 51
270.0
  0
ARC
  5
319
102
{ACAD_REACTORS
330
550
102
}
330
1F
100
AcDbEntity
  8
LC-002-002-----0
 62
     7
370
    25
100
AcDbCircle
 10
1484.480915
 20
1788.187973
 30
0.0
 40
5.999999999999863
100
AcDbArc
 50
209.988476
 51
270.0
  0
ARC
  5
31A
102
{ACAD_REACTORS
330
550
102
}
330
1F
100
AcDbEntity
  8
LC-002-002-----0
 62
     7
370
    25
100
AcDbCircle
 10
1473.944272
 20
1784.437973
 30
0.0
 40
5.000000000000414
100
AcDbArc
 50
30.016153
 51
82.072225
  0
ARC
  5
31B
102
{ACAD_REACTORS
330
550
102
}
330
1F
100
AcDbEntity
  8
LC-002-002-----0
 62
     7
370
    25
100
AcDbCircle
 10
1474.744272
 20
1790.182536
 30
0.0
 40
0.8000000000001819
100
AcDbArc
 50
180.0
 51
262.062606
  0
LINE
  5
31C
102
{ACAD_REACTORS
330
550
102
}
330
1F
100
AcDbEntity
  8
LC-002-002-----0
 62
     7
370
    25
100
AcDbLine
 10
1510.086954
 20
1884.687973
 30
0.0
 11
1514.086954
 21
1884.687973
 31
0.0
  0
LINE
  5
31D
102
{ACAD_REACTORS
330
550
102
}
330
1F
100
AcDbEntity
  8
LC-002-002-----0
 62
     7
370
    25
100
AcDbLine
 10
1478.274047
 20
1872.437363
 30
0.0
 11
1479.284396
 21
1874.187338
 31
0.0
  0
LINE
  5
31E
102
{ACAD_REACTORS
330
550
102
}
330
1F
100
AcDbEntity
  8
LC-002-002-----0
 62
     7
370
    25
100
AcDbLine
 10
1473.944273
 20
1867.187973
 30
0.0
 11
1471.444272
 21
1867.187973
 31
0.0
  0
LINE
  5
31F
102
{ACAD_REACTORS
330
550
102
}
330
1F
100
AcDbEntity
  8
LC-002-002-----0
 62
     7
370
    25
100
AcDbLine
 10
1484.480915
 20
1877.187973
 30
0.0
 11
1499.944272
 21
1877.187973
 31
0.0
  0
LINE
  5
320
102
{ACAD_REACTORS
330
550
102
}
330
1F
100
AcDbEntity
  8
LC-002-002-----0
 62
     7
370
    25
100
AcDbLine
 10
1509.626731
 20
1884.687973
 30
0.0
 11
1510.086954
 21
1884.687973
 31
0.0
  0
ARC
  5
321
102
{ACAD_REACTORS
330
550
102
}
330
1F
100
AcDbEntity
  8
LC-002-002-----0
 62
     7
370
    25
100
AcDbCircle
 10
1499.944272
 20
1881.187973
 30
0.0
 40
4.0
100
AcDbArc
 50
270.0
 51
345.507853
  0
ARC
  5
322
102
{ACAD_REACTORS
330
550
102
}
330
1F
100
AcDbEntity
  8
LC-002-002-----0
 62
     7
370
    25
100
AcDbCircle
 10
1509.626731
 20
1878.687973
 30
0.0
 40
6.0
100
AcDbArc
 50
90.0
 51
165.530548
  0
ARC
  5
323
102
{ACAD_REACTORS
330
550
102
}
330
1F
100
AcDbEntity
  8
LC-002-002-----0
 62
     7
370
    25
100
AcDbCircle
 10
1484.480915
 20
1871.187973
 30
0.0
 40
6.0
100
AcDbArc
 50
90.0
 51
150.011524
  0
ARC
  5
324
102
{ACAD_REACTORS
330
550
102
}
330
1F
100
AcDbEntity
  8
LC-002-002-----0
 62
     7
370
    25
100
AcDbCircle
 10
1473.944272
 20
1874.937973
 30
0.0
 40
5.000000000000194
100
AcDbArc
 50
277.927775
 51
329.983847
  0
ARC
  5
325
102
{ACAD_REACTORS
330
550
102
}
330
1F
100
AcDbEntity
  8
LC-002-002-----0
 62
     7
370
    25
100
AcDbCircle
 10
1474.744272
 20
1869.19341
 30
0.0
 40
0.7999999999998813
100
AcDbArc
 50
97.937394
 51
180.0
  0
LINE
  5
326
102
{ACAD_REACTORS
330
54B
102
}
330
1F
100
AcDbEntity
  8
LC-002-002-----0
 62
     7
370
    25
100
AcDbLine
 10
1479.336954
 20
1909.187973
 30
0.0
 11
1479.336954
 21
1932.941594
 31
0.0
  0
LINE
  5
327
102
{ACAD_REACTORS
330
551
102
}
330
1F
100
AcDbEntity
  8
LC-002-002-----0
 62
     7
370
    25
100
AcDbLine
 10
1672.438385
 20
1951.421653
 30
0.0
 11
1633.506514
 21
1954.348955
 31
0.0
  0
LINE
  5
328
102
{ACAD_REACTORS
330
54B
102
}
330
1F
100
AcDbEntity
  8
LC-002-002-----0
 62
     7
370
    25
100
AcDbLine
 10
1511.809394
 20
1946.138579
 30
0.0
 11
1491.836944
 21
1945.441125
 31
0.0
  0
LINE
  5
329
102
{ACAD_REACTORS
330
54B
102
}
330
1F
100
AcDbEntity
  8
LC-002-002-----0
 62
     7
370
    25
100
AcDbLine
 10
1526.836954
 20
1952.941126
 30
0.0
 11
1532.836954
 21
1952.941126
 31
0.0
  0
LINE
  5
32A
102
{ACAD_REACTORS
330
54A
102
}
330
1F
100
AcDbEntity
  8
LC-002-002-----0
 62
     7
370
    25
100
AcDbLine
 10
1588.965875
 20
1953.040131
 30
0.0
 11
1538.872935
 21
1946.889491
 31
0.0
  0
LINE
  5
32B
102
{ACAD_REACTORS
330
54B
102
}
330
1F
100
AcDbEntity
  8
LC-002-002-----0
 62
     7
370
    25
100
AcDbLine
 10
1504.336954
 20
1909.187973
 30
0.0
 11
1504.336954
 21
1920.004616
 31
0.0
  0
LINE
  5
32C
102
{ACAD_REACTORS
330
551
102
}
330
1F
100
AcDbEntity
  8
LC-002-002-----0
 62
     7
370
    25
100
AcDbLine
 10
1624.902432
 20
1953.482997
 30
0.0
 11
1624.852229
 21
1953.471325
 31
0.0
  0
LINE
  5
32D
102
{ACAD_REACTORS
330
54C
102
}
330
1F
100
AcDbEntity
  8
LC-002-002-----0
 62
     7
370
    25
100
AcDbLine
 10
1624.278328
 20
1954.857181
 30
0.0
 11
1589.766821
 21
1950.6197
 31
0.0
  0
LINE
  5
32E
102
{ACAD_REACTORS
330
551
102
}
330
1F
100
AcDbEntity
  8
LC-002-002-----0
 62
     7
370
    25
100
AcDbLine
 10
1633.211399
 20
1954.342008
 30
0.0
 11
1624.921931
 21
1953.324189
 31
0.0
  0
LINE
  5
32F
102
{ACAD_REACTORS
330
551
102
}
330
1F
100
AcDbEntity
  8
LC-002-002-----0
 62
     7
370
    25
100
AcDbLine
 10
1627.083542
 20
1935.298731
 30
0.0
 11
1627.135078
 21
1935.299551
 31
0.0
  0
LINE
  5
330
102
{ACAD_REACTORS
330
54B
102
}
330
1F
100
AcDbEntity
  8
LC-002-002-----0
 62
     7
370
    25
100
AcDbLine
 10
1532.836953
 20
1952.941126
 30
0.0
 11
1532.836954
 21
1912.941126
 31
0.0
  0
LINE
  5
331
102
{ACAD_REACTORS
330
551
102
}
330
1F
100
AcDbEntity
  8
LC-002-002-----0
 62
     7
370
    25
100
AcDbLine
 10
1641.259979
 20
1938.706337
 30
0.0
 11
1676.311604
 21
1943.010136
 31
0.0
  0
LINE
  5
332
102
{ACAD_REACTORS
330
551
102
}
330
1F
100
AcDbEntity
  8
LC-002-002-----0
 62
     7
370
    25
100
AcDbLine
 10
1627.115579
 20
1935.458359
 30
0.0
 11
1639.274299
 21
1936.951262
 31
0.0
  0
LINE
  5
333
102
{ACAD_REACTORS
330
54C
102
}
330
1F
100
AcDbEntity
  8
LC-002-002-----0
 62
     7
370
    25
100
AcDbLine
 10
1592.350451
 20
1929.577722
 30
0.0
 11
1626.862237
 21
1933.815236
 31
0.0
  0
LINE
  5
334
102
{ACAD_REACTORS
330
54A
102
}
330
1F
100
AcDbEntity
  8
LC-002-002-----0
 62
     7
370
    25
100
AcDbLine
 10
1592.012608
 20
1928.226477
 30
0.0
 11
1541.919668
 21
1922.075838
 31
0.0
  0
LINE
  5
335
102
{ACAD_REACTORS
330
551
102
}
330
1F
100
AcDbEntity
  8
LC-002-002-----0
 62
     7
370
    25
100
AcDbLine
 10
1639.639878
 20
1933.97362
 30
0.0
 11
1677.852904
 21
1938.665589
 31
0.0
  0
LINE
  5
336
102
{ACAD_REACTORS
330
54B
102
}
330
1F
100
AcDbEntity
  8
LC-002-002-----0
 62
     7
370
    25
100
AcDbLine
 10
1526.836954
 20
1912.941126
 30
0.0
 11
1532.836954
 21
1912.941126
 31
0.0
  0
LINE
  5
337
102
{ACAD_REACTORS
330
54B
102
}
330
1F
100
AcDbEntity
  8
LC-002-002-----0
 62
     7
370
    25
100
AcDbLine
 10
1511.809394
 20
1919.743673
 30
0.0
 11
1504.334325
 21
1920.004708
 31
0.0
  0
LINE
  5
338
102
{ACAD_REACTORS
330
54A
102
}
330
1F
100
AcDbEntity
  8
LC-002-002-----0
 62
     7
370
    25
100
AcDbLine
 10
1541.919668
 20
1922.075838
 30
0.0
 11
1538.872935
 21
1946.889491
 31
0.0
  0
LINE
  5
339
102
{ACAD_REACTORS
330
54A
102
}
330
1F
100
AcDbEntity
  8
LC-002-002-----0
 62
     7
370
    25
100
AcDbLine
 10
1592.447947
 20
1928.783685
 30
0.0
 11
1589.523083
 21
1952.604793
 31
0.0
  0
LINE
  5
33A
102
{ACAD_REACTORS
330
54C
102
}
330
1F
100
AcDbEntity
  8
LC-002-002-----0
 62
     7
370
    25
100
AcDbLine
 10
1627.198754
 20
1934.360406
 30
0.0
 11
1624.737015
 21
1954.409666
 31
0.0
  0
LINE
  5
33B
102
{ACAD_REACTORS
330
551
102
}
330
1F
100
AcDbEntity
  8
LC-002-002-----0
 62
     7
370
    25
100
AcDbLine
 10
1627.135078
 20
1935.299551
 30
0.0
 11
1627.115579
 21
1935.458359
 31
0.0
  0
LINE
  5
33C
102
{ACAD_REACTORS
330
551
102
}
330
1F
100
AcDbEntity
  8
LC-002-002-----0
 62
     7
370
    25
100
AcDbLine
 10
1639.639878
 20
1933.97362
 30
0.0
 11
1639.27427
 21
1936.951258
 31
0.0
  0
LINE
  5
33D
102
{ACAD_REACTORS
330
551
102
}
330
1F
100
AcDbEntity
  8
LC-002-002-----0
 62
     7
370
    25
100
AcDbLine
 10
1640.384287
 20
1934.065022
 30
0.0
 11
1640.628026
 21
1932.079929
 31
0.0
  0
LINE
  5
33E
102
{ACAD_REACTORS
330
551
102
}
330
1F
100
AcDbEntity
  8
LC-002-002-----0
 62
     7
370
    25
100
AcDbLine
 10
1674.453121
 20
1943.789452
 30
0.0
 11
1673.660914
 21
1950.241465
 31
0.0
  0
LINE
  5
33F
102
{ACAD_REACTORS
330
551
102
}
330
1F
100
AcDbEntity
  8
LC-002-002-----0
 62
     7
370
    25
100
AcDbLine
 10
1677.108495
 20
1938.574187
 30
0.0
 11
1677.352234
 21
1936.589095
 31
0.0
  0
LINE
  5
340
102
{ACAD_REACTORS
330
551
102
}
330
1F
100
AcDbEntity
  8
LC-002-002-----0
 62
     7
370
    25
100
AcDbLine
 10
1677.852904
 20
1938.665589
 30
0.0
 11
1677.426362
 21
1942.139501
 31
0.0
  0
ARC
  5
341
102
{ACAD_REACTORS
330
54A
102
}
330
1F
100
AcDbEntity
  8
LC-002-002-----0
 62
     7
370
    25
100
AcDbCircle
 10
1591.951674
 20
1928.72275
 30
0.0
 40
0.5000000000005059
100
AcDbArc
 50
277.0
 51
7.0
  0
ARC
  5
342
102
{ACAD_REACTORS
330
54A
102
}
330
1F
100
AcDbEntity
  8
LC-002-002-----0
 62
     7
370
    25
100
AcDbCircle
 10
1589.02681
 20
1952.543858
 30
0.0
 40
0.5000000000004504
100
AcDbArc
 50
7.0
 51
97.0
  0
ARC
  5
343
102
{ACAD_REACTORS
330
54A
102
}
330
1F
100
AcDbEntity
  8
LC-002-002-----0
 62
     7
370
    25
100
AcDbCircle
 10
1542.041538
 20
1921.083291
 30
0.0
 40
0.9999999999995469
100
AcDbArc
 50
97.0
 51
140.137678
  0
ARC
  5
344
102
{ACAD_REACTORS
330
54A
102
}
330
1F
100
AcDbEntity
  8
LC-002-002-----0
 62
     7
370
    25
100
AcDbCircle
 10
1538.751065
 20
1947.882038
 30
0.0
 40
0.9999999999997226
100
AcDbArc
 50
233.862322
 51
277.0
  0
ARC
  5
345
102
{ACAD_REACTORS
330
54A
102
}
330
1F
100
AcDbEntity
  8
LC-002-002-----0
 62
     7
370
    25
100
AcDbCircle
 10
1527.841475
 20
1932.941126
 30
0.0
 40
17.50000000000014
100
AcDbArc
 50
53.85835
 51
74.413898
  0
ARC
  5
346
102
{ACAD_REACTORS
330
54A
102
}
330
1F
100
AcDbEntity
  8
LC-002-002-----0
 62
     7
370
    25
100
AcDbCircle
 10
1527.841475
 20
1932.941126
 30
0.0
 40
17.50000000000006
100
AcDbArc
 50
287.586103
 51
320.141806
  0
ARC
  5
347
102
{ACAD_REACTORS
330
551
102
}
330
1F
100
AcDbEntity
  8
LC-002-002-----0
 62
     7
370
    25
100
AcDbCircle
 10
1676.433816
 20
1942.017632
 30
0.0
 40
0.9999999999999982
100
AcDbArc
 50
7.0
 51
97.0
  0
ARC
  5
348
102
{ACAD_REACTORS
330
551
102
}
330
1F
100
AcDbEntity
  8
LC-002-002-----0
 62
     7
370
    25
100
AcDbCircle
 10
1675.445667
 20
1943.911322
 30
0.0
 40
1.000000000000622
100
AcDbArc
 50
187.0
 51
276.987263
  0
ARC
  5
349
102
{ACAD_REACTORS
330
54B
102
}
330
1F
100
AcDbEntity
  8
LC-002-002-----0
 62
     7
370
    25
100
AcDbCircle
 10
1526.836954
 20
1932.941126
 30
0.0
 40
19.99999999999979
100
AcDbArc
 50
221.290426
 51
270.0
  0
ARC
  5
34A
102
{ACAD_REACTORS
330
54B
102
}
330
1F
100
AcDbEntity
  8
LC-002-002-----0
 62
     7
370
    25
100
AcDbCircle
 10
1526.836954
 20
1932.941126
 30
0.0
 40
20.0
100
AcDbArc
 50
90.0
 51
138.709438
  0
ARC
  5
34B
102
{ACAD_REACTORS
330
54B
102
}
330
1F
100
AcDbEntity
  8
LC-002-002-----0
 62
     7
370
    25
100
AcDbCircle
 10
1491.836954
 20
1932.941126
 30
0.0
 40
12.5
100
AcDbArc
 50
90.0
 51
180.0
  0
INSERT
  5
363
102
{ACAD_REACTORS
330
551
102
}
330
1F
100
AcDbEntity
  8
LC-002-002-----0
 62
     7
370
    25
100
AcDbBlockReference
  2
POLY5
 10
0.0
 20
0.0
 30
0.0
  0
INSERT
  5
36D
102
{ACAD_REACTORS
330
551
102
}
330
1F
100
AcDbEntity
  8
LC-002-002-----0
 62
     7
370
    25
100
AcDbBlockReference
  2
POLY6
 10
0.0
 20
0.0
 30
0.0
  0
INSERT
  5
37F
102
{ACAD_REACTORS
330
551
102
}
330
1F
100
AcDbEntity
  8
LC-002-002-----0
 62
     7
370
    25
100
AcDbBlockReference
  2
POLY7
 10
0.0
 20
0.0
 30
0.0
  0
INSERT
  5
3A9
102
{ACAD_REACTORS
330
54B
102
}
330
1F
100
AcDbEntity
  8
LC-002-002-----0
 62
     7
370
    25
100
AcDbBlockReference
  2
POLY8
 10
0.0
 20
0.0
 30
0.0
  0
LINE
  5
3AA
102
{ACAD_REACTORS
330
54C
102
}
330
1F
100
AcDbEntity
  8
LC-002-002-----0
 62
     7
370
    25
100
AcDbLine
 10
1626.862237
 20
1933.815236
 30
0.0
 11
1627.071651
 21
1933.962378
 31
0.0
  0
LINE
  5
3AB
102
{ACAD_REACTORS
330
54C
102
}
330
1F
100
AcDbEntity
  8
LC-002-002-----0
 62
     7
370
    25
100
AcDbLine
 10
1627.071651
 20
1933.962378
 30
0.0
 11
1627.179584
 21
1934.150009
 31
0.0
  0
LINE
  5
3AC
102
{ACAD_REACTORS
330
54C
102
}
330
1F
100
AcDbEntity
  8
LC-002-002-----0
 62
     7
370
    25
100
AcDbLine
 10
1627.179584
 20
1934.150009
 30
0.0
 11
1627.198754
 21
1934.360406
 31
0.0
  0
LINE
  5
3AD
102
{ACAD_REACTORS
330
54C
102
}
330
1F
100
AcDbEntity
  8
LC-002-002-----0
 62
     7
370
    25
100
AcDbLine
 10
1624.737015
 20
1954.409666
 30
0.0
 11
1624.667381
 21
1954.609394
 31
0.0
  0
LINE
  5
3AE
102
{ACAD_REACTORS
330
54C
102
}
330
1F
100
AcDbEntity
  8
LC-002-002-----0
 62
     7
370
    25
100
AcDbLine
 10
1624.667381
 20
1954.609394
 30
0.0
 11
1624.51703
 21
1954.765364
 31
0.0
  0
LINE
  5
3AF
102
{ACAD_REACTORS
330
54C
102
}
330
1F
100
AcDbEntity
  8
LC-002-002-----0
 62
     7
370
    25
100
AcDbLine
 10
1624.51703
 20
1954.765364
 30
0.0
 11
1624.278328
 21
1954.857181
 31
0.0
  0
LINE
  5
3B0
102
{ACAD_REACTORS
330
551
102
}
330
1F
100
AcDbEntity
  8
LC-002-002-----0
 62
     7
370
    25
100
AcDbLine
 10
1673.648952
 20
1950.27235
 30
0.0
 11
1673.648952
 21
1950.27235
 31
0.0
  0
LINE
  5
3B1
102
{ACAD_REACTORS
330
551
102
}
330
1F
100
AcDbEntity
  8
LC-002-002-----0
 62
     7
370
    25
100
AcDbLine
 10
1673.660914
 20
1950.241465
 30
0.0
 11
1673.493874
 21
1950.672753
 31
0.0
  0
LINE
  5
3B2
102
{ACAD_REACTORS
330
551
102
}
330
1F
100
AcDbEntity
  8
LC-002-002-----0
 62
     7
370
    25
100
AcDbLine
 10
1673.493874
 20
1950.672753
 30
0.0
 11
1673.493874
 21
1950.672753
 31
0.0
  0
LINE
  5
3B3
102
{ACAD_REACTORS
330
551
102
}
330
1F
100
AcDbEntity
  8
LC-002-002-----0
 62
     7
370
    25
100
AcDbLine
 10
1673.493874
 20
1950.672753
 30
0.0
 11
1673.231442
 21
1951.013058
 31
0.0
  0
LINE
  5
3B4
102
{ACAD_REACTORS
330
551
102
}
330
1F
100
AcDbEntity
  8
LC-002-002-----0
 62
     7
370
    25
100
AcDbLine
 10
1673.231442
 20
1951.013058
 30
0.0
 11
1673.231442
 21
1951.013058
 31
0.0
  0
LINE
  5
3B5
102
{ACAD_REACTORS
330
551
102
}
330
1F
100
AcDbEntity
  8
LC-002-002-----0
 62
     7
370
    25
100
AcDbLine
 10
1673.231442
 20
1951.013058
 30
0.0
 11
1672.88308
 21
1951.26506
 31
0.0
  0
LINE
  5
3B6
102
{ACAD_REACTORS
330
551
102
}
330
1F
100
AcDbEntity
  8
LC-002-002-----0
 62
     7
370
    25
100
AcDbLine
 10
1672.88308
 20
1951.26506
 30
0.0
 11
1672.88308
 21
1951.26506
 31
0.0
  0
LINE
  5
3B7
102
{ACAD_REACTORS
330
551
102
}
330
1F
100
AcDbEntity
  8
LC-002-002-----0
 62
     7
370
    25
100
AcDbLine
 10
1672.88308
 20
1951.26506
 30
0.0
 11
1672.438385
 21
1951.421653
 31
0.0
  0
LINE
  5
3B8
102
{ACAD_REACTORS
330
550
102
}
330
1F
100
AcDbEntity
  8
LC-002-002-----0
 62
     7
370
    25
100
AcDbLine
 10
1506.981954
 20
1889.687973
 30
0.0
 11
1506.936954
 21
1889.687973
 31
0.0
  0
LINE
  5
3B9
102
{ACAD_REACTORS
330
550
102
}
330
1F
100
AcDbEntity
  8
LC-002-002-----0
 62
     7
370
    25
100
AcDbLine
 10
1476.691954
 20
1889.942702
 30
0.0
 11
1476.691954
 21
1889.687973
 31
0.0
  0
LINE
  5
3BA
102
{ACAD_REACTORS
330
550
102
}
330
1F
100
AcDbEntity
  8
LC-002-002-----0
 62
     7
370
    25
100
AcDbLine
 10
1506.981954
 20
1889.942702
 30
0.0
 11
1506.981954
 21
1889.687973
 31
0.0
  0
LINE
  5
3BB
102
{ACAD_REACTORS
330
550
102
}
330
1F
100
AcDbEntity
  8
LC-002-002-----0
 62
     7
370
    25
100
AcDbLine
 10
1476.691954
 20
1894.565337
 30
0.0
 11
1475.212005
 21
1893.794925
 31
0.0
  0
LINE
  5
3BC
102
{ACAD_REACTORS
330
550
102
}
330
1F
100
AcDbEntity
  8
LC-002-002-----0
 62
     7
370
    25
100
AcDbLine
 10
1476.691954
 20
1893.024459
 30
0.0
 11
1475.212005
 21
1892.254047
 31
0.0
  0
LINE
  5
3BD
102
{ACAD_REACTORS
330
550
102
}
330
1F
100
AcDbEntity
  8
LC-002-002-----0
 62
     7
370
    25
100
AcDbLine
 10
1476.691954
 20
1891.483581
 30
0.0
 11
1475.212005
 21
1890.713168
 31
0.0
  0
LINE
  5
3BE
102
{ACAD_REACTORS
330
550
102
}
330
1F
100
AcDbEntity
  8
LC-002-002-----0
 62
     7
370
    25
100
AcDbLine
 10
1508.461902
 20
1893.794871
 30
0.0
 11
1506.981954
 21
1893.024459
 31
0.0
  0
LINE
  5
3BF
102
{ACAD_REACTORS
330
550
102
}
330
1F
100
AcDbEntity
  8
LC-002-002-----0
 62
     7
370
    25
100
AcDbLine
 10
1508.461902
 20
1892.253993
 30
0.0
 11
1506.981954
 21
1891.483581
 31
0.0
  0
LINE
  5
3C0
102
{ACAD_REACTORS
330
550
102
}
330
1F
100
AcDbEntity
  8
LC-002-002-----0
 62
     7
370
    25
100
AcDbLine
 10
1508.461902
 20
1890.713114
 30
0.0
 11
1506.981954
 21
1889.942702
 31
0.0
  0
LINE
  5
3C1
102
{ACAD_REACTORS
330
550
102
}
330
1F
100
AcDbEntity
  8
LC-002-002-----0
 62
     7
370
    25
100
AcDbLine
 10
1506.981954
 20
1894.565337
 30
0.0
 11
1508.461902
 21
1893.794925
 31
0.0
  0
LINE
  5
3C2
102
{ACAD_REACTORS
330
550
102
}
330
1F
100
AcDbEntity
  8
LC-002-002-----0
 62
     7
370
    25
100
AcDbLine
 10
1506.981954
 20
1893.024459
 30
0.0
 11
1508.461902
 21
1892.254047
 31
0.0
  0
LINE
  5
3C3
102
{ACAD_REACTORS
330
550
102
}
330
1F
100
AcDbEntity
  8
LC-002-002-----0
 62
     7
370
    25
100
AcDbLine
 10
1506.981954
 20
1891.483581
 30
0.0
 11
1508.461902
 21
1890.713168
 31
0.0
  0
LINE
  5
3C4
102
{ACAD_REACTORS
330
550
102
}
330
1F
100
AcDbEntity
  8
LC-002-002-----0
 62
     7
370
    25
100
AcDbLine
 10
1475.212005
 20
1893.794871
 30
0.0
 11
1476.691954
 21
1893.024459
 31
0.0
  0
LINE
  5
3C5
102
{ACAD_REACTORS
330
550
102
}
330
1F
100
AcDbEntity
  8
LC-002-002-----0
 62
     7
370
    25
100
AcDbLine
 10
1475.212005
 20
1892.253993
 30
0.0
 11
1476.691954
 21
1891.483581
 31
0.0
  0
LINE
  5
3C6
102
{ACAD_REACTORS
330
550
102
}
330
1F
100
AcDbEntity
  8
LC-002-002-----0
 62
     7
370
    25
100
AcDbLine
 10
1475.212005
 20
1890.713114
 30
0.0
 11
1476.691954
 21
1889.942702
 31
0.0
  0
LINE
  5
3C7
102
{ACAD_REACTORS
330
550
102
}
330
1F
100
AcDbEntity
  8
LC-002-002-----0
 62
     7
370
    25
100
AcDbLine
 10
1471.836954
 20
1894.687973
 30
0.0
 11
1471.836954
 21
1896.687973
 31
0.0
  0
LINE
  5
3C8
102
{ACAD_REACTORS
330
550
102
}
330
1F
100
AcDbEntity
  8
LC-002-002-----0
 62
     7
370
    25
100
AcDbLine
 10
1473.879716
 20
1897.437974
 30
0.0
 11
1473.879716
 21
1909.177207
 31
0.0
  0
LINE
  5
3C9
102
{ACAD_REACTORS
330
550
102
}
330
1F
100
AcDbEntity
  8
LC-002-002-----0
 62
     7
370
    25
100
AcDbLine
 10
1474.952177
 20
1896.937973
 30
0.0
 11
1474.952177
 21
1907.187973
 31
0.0
  0
LINE
  5
3CA
102
{ACAD_REACTORS
330
550
102
}
330
1F
100
AcDbEntity
  8
LC-002-002-----0
 62
     7
370
    25
100
AcDbLine
 10
1491.406577
 20
1896.937973
 30
0.0
 11
1491.406577
 21
1907.187973
 31
0.0
  0
LINE
  5
3CB
102
{ACAD_REACTORS
330
550
102
}
330
1F
100
AcDbEntity
  8
LC-002-002-----0
 62
     7
370
    25
100
AcDbLine
 10
1492.267331
 20
1896.937973
 30
0.0
 11
1492.267331
 21
1907.187973
 31
0.0
  0
LINE
  5
3CC
102
{ACAD_REACTORS
330
550
102
}
330
1F
100
AcDbEntity
  8
LC-002-002-----0
 62
     7
370
    25
100
AcDbLine
 10
1508.72173
 20
1896.937973
 30
0.0
 11
1508.72173
 21
1907.187973
 31
0.0
  0
LINE
  5
3CD
102
{ACAD_REACTORS
330
550
102
}
330
1F
100
AcDbEntity
  8
LC-002-002-----0
 62
     7
370
    25
100
AcDbLine
 10
1509.794192
 20
1897.437974
 30
0.0
 11
1509.794192
 21
1909.177207
 31
0.0
  0
LINE
  5
3CE
102
{ACAD_REACTORS
330
550
102
}
330
1F
100
AcDbEntity
  8
LC-002-002-----0
 62
     7
370
    25
100
AcDbLine
 10
1511.836954
 20
1894.687973
 30
0.0
 11
1511.836954
 21
1896.687973
 31
0.0
  0
LINE
  5
3CF
102
{ACAD_REACTORS
330
550
102
}
330
1F
100
AcDbEntity
  8
LC-002-002-----0
 62
     7
370
    25
100
AcDbLine
 10
1471.837051
 20
1896.68807
 30
0.0
 11
1472.586941
 21
1897.43796
 31
0.0
  0
LINE
  5
3D0
102
{ACAD_REACTORS
330
550
102
}
330
1F
100
AcDbEntity
  8
LC-002-002-----0
 62
     7
370
    25
100
AcDbLine
 10
1474.087144
 20
1909.187973
 30
0.0
 11
1509.586763
 21
1909.187973
 31
0.0
  0
LINE
  5
3D1
102
{ACAD_REACTORS
330
550
102
}
330
1F
100
AcDbEntity
  8
LC-002-002-----0
 62
     7
370
    25
100
AcDbLine
 10
1476.13947
 20
1897.438115
 30
0.0
 11
1490.036367
 21
1897.438115
 31
0.0
  0
LINE
  5
3D2
102
{ACAD_REACTORS
330
550
102
}
330
1F
100
AcDbEntity
  8
LC-002-002-----0
 62
     7
370
    25
100
AcDbLine
 10
1493.63754
 20
1897.438115
 30
0.0
 11
1507.534437
 21
1897.438115
 31
0.0
  0
LINE
  5
3D3
102
{ACAD_REACTORS
330
550
102
}
330
1F
100
AcDbEntity
  8
LC-002-002-----0
 62
     7
370
    25
100
AcDbLine
 10
1472.586941
 20
1897.43796
 30
0.0
 11
1474.338743
 21
1897.43796
 31
0.0
  0
LINE
  5
3D4
102
{ACAD_REACTORS
330
550
102
}
330
1F
100
AcDbEntity
  8
LC-002-002-----0
 62
     7
370
    25
100
AcDbLine
 10
1509.335153
 20
1897.437973
 30
0.0
 11
1511.086966
 21
1897.43796
 31
0.0
  0
LINE
  5
3D5
102
{ACAD_REACTORS
330
550
102
}
330
1F
100
AcDbEntity
  8
LC-002-002-----0
 62
     7
370
    25
100
AcDbLine
 10
1474.521945
 20
1896.938065
 30
0.0
 11
1474.952253
 21
1896.938065
 31
0.0
  0
LINE
  5
3D6
102
{ACAD_REACTORS
330
550
102
}
330
1F
100
AcDbEntity
  8
LC-002-002-----0
 62
     7
370
    25
100
AcDbLine
 10
1508.721654
 20
1896.938065
 30
0.0
 11
1509.151962
 21
1896.938065
 31
0.0
  0
LINE
  5
3D7
102
{ACAD_REACTORS
330
550
102
}
330
1F
100
AcDbEntity
  8
LC-002-002-----0
 62
     7
370
    25
100
AcDbLine
 10
1491.403805
 20
1896.937963
 30
0.0
 11
1492.270103
 21
1896.937963
 31
0.0
  0
LINE
  5
3D8
102
{ACAD_REACTORS
330
550
102
}
330
1F
100
AcDbEntity
  8
LC-002-002-----0
 62
     7
370
    25
100
AcDbLine
 10
1471.836954
 20
1894.687973
 30
0.0
 11
1511.836954
 21
1894.687973
 31
0.0
  0
LINE
  5
3D9
102
{ACAD_REACTORS
330
550
102
}
330
1F
100
AcDbEntity
  8
LC-002-002-----0
 62
     7
370
    25
100
AcDbLine
 10
1511.836857
 20
1896.68807
 30
0.0
 11
1511.086966
 21
1897.43796
 31
0.0
  0
ARC
  5
3DA
102
{ACAD_REACTORS
330
550
102
}
330
1F
100
AcDbEntity
  8
LC-002-002-----0
 62
     7
370
    25
100
AcDbCircle
 10
1509.586954
 20
1907.187973
 30
0.0
 40
1.999999999999995
100
AcDbArc
 50
84.05239
 51
90.0
  0
ARC
  5
3DB
102
{ACAD_REACTORS
330
550
102
}
330
1F
100
AcDbEntity
  8
LC-002-002-----0
 62
     7
370
    25
100
AcDbCircle
 10
1474.086954
 20
1907.187973
 30
0.0
 40
2.0
100
AcDbArc
 50
90.0
 51
95.94761
  0
INSERT
  5
3E5
102
{ACAD_REACTORS
330
550
102
}
330
1F
100
AcDbEntity
  8
LC-002-002-----0
 62
     7
370
    25
100
AcDbBlockReference
  2
POLY9
 10
0.0
 20
0.0
 30
0.0
  0
INSERT
  5
3EF
102
{ACAD_REACTORS
330
550
102
}
330
1F
100
AcDbEntity
  8
LC-002-002-----0
 62
     7
370
    25
100
AcDbBlockReference
  2
POLY10
 10
0.0
 20
0.0
 30
0.0
  0
INSERT
  5
3F9
102
{ACAD_REACTORS
330
550
102
}
330
1F
100
AcDbEntity
  8
LC-002-002-----0
 62
     7
370
    25
100
AcDbBlockReference
  2
POLY11
 10
0.0
 20
0.0
 30
0.0
  0
INSERT
  5
445
102
{ACAD_REACTORS
330
550
102
}
330
1F
100
AcDbEntity
  8
LC-002-002-----0
 62
     7
370
    25
100
AcDbBlockReference
  2
POLY12
 10
0.0
 20
0.0
 30
0.0
  0
INSERT
  5
44F
102
{ACAD_REACTORS
330
550
102
}
330
1F
100
AcDbEntity
  8
LC-002-002-----0
 62
     7
370
    25
100
AcDbBlockReference
  2
POLY13
 10
0.0
 20
0.0
 30
0.0
  0
INSERT
  5
459
102
{ACAD_REACTORS
330
550
102
}
330
1F
100
AcDbEntity
  8
LC-002-002-----0
 62
     7
370
    25
100
AcDbBlockReference
  2
POLY14
 10
0.0
 20
0.0
 30
0.0
  0
INSERT
  5
463
102
{ACAD_REACTORS
330
550
102
}
330
1F
100
AcDbEntity
  8
LC-002-002-----0
 62
     7
370
    25
100
AcDbBlockReference
  2
POLY15
 10
0.0
 20
0.0
 30
0.0
  0
INSERT
  5
4AF
102
{ACAD_REACTORS
330
550
102
}
330
1F
100
AcDbEntity
  8
LC-002-002-----0
 62
     7
370
    25
100
AcDbBlockReference
  2
POLY16
 10
0.0
 20
0.0
 30
0.0
  0
LINE
  5
4B0
102
{ACAD_REACTORS
330
550
102
}
330
1F
100
AcDbEntity
  8
LC-002-002-----0
 62
     7
370
    25
100
AcDbLine
 10
1476.456373
 20
1894.687973
 30
0.0
 11
1476.691954
 21
1894.565337
 31
0.0
  0
LINE
  5
4B1
102
{ACAD_REACTORS
330
550
102
}
330
1F
100
AcDbEntity
  8
LC-002-002-----0
 62
     7
370
    25
100
AcDbLine
 10
1507.217534
 20
1894.687973
 30
0.0
 11
1506.981954
 21
1894.565337
 31
0.0
  0
LINE
  5
4B2
102
{ACAD_REACTORS
330
550
102
}
330
1F
100
AcDbEntity
  8
LC-002-002-----0
 62
     7
370
    25
100
AcDbLine
 10
1476.736954
 20
1889.687973
 30
0.0
 11
1476.736954
 21
1870.790572
 31
0.0
  0
LINE
  5
4B3
102
{ACAD_REACTORS
330
550
102
}
330
1F
100
AcDbEntity
  8
LC-002-002-----0
 62
     7
370
    25
100
AcDbLine
 10
1506.936954
 20
1889.687973
 30
0.0
 11
1506.936954
 21
1884.67056
 31
0.0
  0
LINE
  5
4B4
102
{ACAD_REACTORS
330
551
102
}
330
1F
100
AcDbEntity
  8
LC-002-002-----0
 62
     7
370
    25
100
AcDbLine
 10
1624.921931
 20
1953.324189
 30
0.0
 11
1624.902432
 21
1953.482997
 31
0.0
  0
LINE
  5
4B5
102
{ACAD_REACTORS
330
550
102
}
330
1F
100
AcDbEntity
  8
LC-002-002-----0
 62
     7
370
    25
100
AcDbLine
 10
1476.736954
 20
1889.687973
 30
0.0
 11
1476.691954
 21
1889.687973
 31
0.0
  0
LINE
  5
4B6
102
{ACAD_REACTORS
330
550
102
}
330
1F
100
AcDbEntity
  8
LC-002-002-----0
 62
     7
370
    25
100
AcDbLine
 10
1473.944273
 20
1867.187973
 30
0.0
 11
1473.944273
 21
1869.19341
 31
0.0
  0
LINE
  5
4B7
102
{ACAD_REACTORS
330
553
102
}
330
1F
100
AcDbEntity
  8
LC-002-002-----0
 62
     7
370
    25
100
AcDbLine
 10
1417.084725
 20
1880.531576
 30
0.0
 11
1416.53323
 21
1880.531576
 31
0.0
  0
LINE
  5
4B8
102
{ACAD_REACTORS
330
54F
102
}
330
1F
100
AcDbEntity
  8
LC-002-002-----0
 62
     7
370
    25
100
AcDbLine
 10
708.876127
 20
2266.25
 30
0.0
 11
818.876127
 21
2266.25
 31
0.0
  0
LINE
  5
4B9
102
{ACAD_REACTORS
330
54F
102
}
330
1F
100
AcDbEntity
  8
LC-002-002-----0
 62
     7
370
    25
100
AcDbLine
 10
818.876127
 20
2262.25
 30
0.0
 11
818.876127
 21
2266.25
 31
0.0
  0
LINE
  5
4BA
102
{ACAD_REACTORS
330
54F
102
}
330
1F
100
AcDbEntity
  8
LC-002-002-----0
 62
     7
370
    25
100
AcDbLine
 10
801.376127
 20
2223.607319
 30
0.0
 11
726.376127
 21
2223.607319
 31
0.0
  0
LINE
  5
4BB
102
{ACAD_REACTORS
330
54F
102
}
330
1F
100
AcDbEntity
  8
LC-002-002-----0
 62
     7
370
    25
100
AcDbLine
 10
803.381091
 20
2226.107319
 30
0.0
 11
801.376127
 21
2226.107319
 31
0.0
  0
LINE
  5
4BC
102
{ACAD_REACTORS
330
54F
102
}
330
1F
100
AcDbEntity
  8
LC-002-002-----0
 62
     7
370
    25
100
AcDbLine
 10
818.876127
 20
2262.25
 30
0.0
 11
708.876127
 21
2262.25
 31
0.0
  0
LINE
  5
4BD
102
{ACAD_REACTORS
330
54F
102
}
330
1F
100
AcDbEntity
  8
LC-002-002-----0
 62
     7
370
    25
100
AcDbLine
 10
726.376127
 20
2226.107319
 30
0.0
 11
726.376127
 21
2223.607319
 31
0.0
  0
LINE
  5
4BE
102
{ACAD_REACTORS
330
54F
102
}
330
1F
100
AcDbEntity
  8
LC-002-002-----0
 62
     7
370
    25
100
AcDbLine
 10
806.625517
 20
2230.437093
 30
0.0
 11
808.375492
 21
2231.447442
 31
0.0
  0
LINE
  5
4BF
102
{ACAD_REACTORS
330
54F
102
}
330
1F
100
AcDbEntity
  8
LC-002-002-----0
 62
     7
370
    25
100
AcDbLine
 10
801.376127
 20
2226.107319
 30
0.0
 11
801.376127
 21
2223.607319
 31
0.0
  0
LINE
  5
4C0
102
{ACAD_REACTORS
330
54F
102
}
330
1F
100
AcDbEntity
  8
LC-002-002-----0
 62
     7
370
    25
100
AcDbLine
 10
811.376127
 20
2236.643961
 30
0.0
 11
811.376127
 21
2252.107319
 31
0.0
  0
LINE
  5
4C1
102
{ACAD_REACTORS
330
54F
102
}
330
1F
100
AcDbEntity
  8
LC-002-002-----0
 62
     7
370
    25
100
AcDbLine
 10
818.876127
 20
2261.789777
 30
0.0
 11
818.876127
 21
2262.25
 31
0.0
  0
ARC
  5
4C2
102
{ACAD_REACTORS
330
54F
102
}
330
1F
100
AcDbEntity
  8
LC-002-002-----0
 62
     7
370
    25
100
AcDbCircle
 10
815.376127
 20
2252.107319
 30
0.0
 40
3.999999999999372
100
AcDbArc
 50
104.492147
 51
180.0
  0
ARC
  5
4C3
102
{ACAD_REACTORS
330
54F
102
}
330
1F
100
AcDbEntity
  8
LC-002-002-----0
 62
     7
370
    25
100
AcDbCircle
 10
812.876127
 20
2261.789777
 30
0.0
 40
6.000000000000098
100
AcDbArc
 50
284.469452
 51
0.0
  0
ARC
  5
4C4
102
{ACAD_REACTORS
330
54F
102
}
330
1F
100
AcDbEntity
  8
LC-002-002-----0
 62
     7
370
    25
100
AcDbCircle
 10
805.376127
 20
2236.643961
 30
0.0
 40
5.999999999999977
100
AcDbArc
 50
299.988476
 51
0.0
  0
ARC
  5
4C5
102
{ACAD_REACTORS
330
54F
102
}
330
1F
100
AcDbEntity
  8
LC-002-002-----0
 62
     7
370
    25
100
AcDbCircle
 10
809.126127
 20
2226.107319
 30
0.0
 40
4.999999999999906
100
AcDbArc
 50
120.016153
 51
172.072225
  0
ARC
  5
4C6
102
{ACAD_REACTORS
330
54F
102
}
330
1F
100
AcDbEntity
  8
LC-002-002-----0
 62
     7
370
    25
100
AcDbCircle
 10
803.381565
 20
2226.907319
 30
0.0
 40
0.7999999999997272
100
AcDbArc
 50
270.0
 51
352.062606
  0
LINE
  5
4C7
102
{ACAD_REACTORS
330
54F
102
}
330
1F
100
AcDbEntity
  8
LC-002-002-----0
 62
     7
370
    25
100
AcDbLine
 10
708.876127
 20
2262.25
 30
0.0
 11
708.876127
 21
2266.25
 31
0.0
  0
ARC
  5
4C8
102
{ACAD_REACTORS
330
54F
102
}
330
1F
100
AcDbEntity
  8
LC-002-002-----0
 62
     7
370
    25
100
AcDbCircle
 10
763.876127
 20
2191.647772
 30
0.0
 40
22.0
100
AcDbArc
 50
180.0
 51
0.0
  0
LINE
  5
4C9
102
{ACAD_REACTORS
330
54F
102
}
330
1F
100
AcDbEntity
  8
LC-002-002-----0
 62
     7
370
    25
100
AcDbLine
 10
741.876127
 20
2191.647772
 30
0.0
 11
741.876127
 21
2205.338956
 31
0.0
  0
LINE
  5
4CA
102
{ACAD_REACTORS
330
54F
102
}
330
1F
100
AcDbEntity
  8
LC-002-002-----0
 62
     7
370
    25
100
AcDbLine
 10
785.876127
 20
2191.647772
 30
0.0
 11
785.876127
 21
2205.338956
 31
0.0
  0
LINE
  5
4CB
102
{ACAD_REACTORS
330
54F
102
}
330
1F
100
AcDbEntity
  8
LC-002-002-----0
 62
     7
370
    25
100
AcDbLine
 10
792.165066
 20
2213.148938
 30
0.0
 11
792.643513
 21
2215.767802
 31
0.0
  0
ARC
  5
4CC
102
{ACAD_REACTORS
330
54F
102
}
330
1F
100
AcDbEntity
  8
LC-002-002-----0
 62
     7
370
    25
100
AcDbCircle
 10
785.770903
 20
2214.317129
 30
0.0
 40
6.500000000000005
100
AcDbArc
 50
289.07704
 51
349.645823
  0
ARC
  5
4CD
102
{ACAD_REACTORS
330
54F
102
}
330
1F
100
AcDbEntity
  8
LC-002-002-----0
 62
     7
370
    25
100
AcDbCircle
 10
788.876127
 20
2205.338956
 30
0.0
 40
2.999999999999865
100
AcDbArc
 50
109.055448
 51
180.0
  0
ARC
  5
4CE
102
{ACAD_REACTORS
330
54F
102
}
330
1F
100
AcDbEntity
  8
LC-002-002-----0
 62
     7
370
    25
100
AcDbCircle
 10
797.374265
 20
2222.904074
 30
0.0
 40
2.000000000000175
100
AcDbArc
 50
334.152631
 51
0.0
  0
ARC
  5
4CF
102
{ACAD_REACTORS
330
54F
102
}
330
1F
100
AcDbEntity
  8
LC-002-002-----0
 62
     7
370
    25
100
AcDbCircle
 10
793.774332
 20
2224.647772
 30
0.0
 40
6.00000000000041
100
AcDbArc
 50
286.283517
 51
334.155028
  0
ARC
  5
4D0
102
{ACAD_REACTORS
330
54F
102
}
330
1F
100
AcDbEntity
  8
LC-002-002-----0
 62
     7
370
    25
100
AcDbCircle
 10
796.57839
 20
2215.048956
 30
0.0
 40
3.999999999999933
100
AcDbArc
 50
106.281751
 51
169.647048
  0
LINE
  5
4D1
102
{ACAD_REACTORS
330
54F
102
}
330
1F
100
AcDbEntity
  8
LC-002-002-----0
 62
     7
370
    25
100
AcDbLine
 10
735.587188
 20
2213.148938
 30
0.0
 11
735.108742
 21
2215.767802
 31
0.0
  0
ARC
  5
4D2
102
{ACAD_REACTORS
330
54F
102
}
330
1F
100
AcDbEntity
  8
LC-002-002-----0
 62
     7
370
    25
100
AcDbCircle
 10
741.981352
 20
2214.317129
 30
0.0
 40
6.499999999999973
100
AcDbArc
 50
190.354177
 51
250.92296
  0
ARC
  5
4D3
102
{ACAD_REACTORS
330
54F
102
}
330
1F
100
AcDbEntity
  8
LC-002-002-----0
 62
     7
370
    25
100
AcDbCircle
 10
738.876127
 20
2205.338956
 30
0.0
 40
2.999999995699682
100
AcDbArc
 50
0.0
 51
70.944552
  0
ARC
  5
4D4
102
{ACAD_REACTORS
330
54F
102
}
330
1F
100
AcDbEntity
  8
LC-002-002-----0
 62
     7
370
    25
100
AcDbCircle
 10
730.37799
 20
2222.904074
 30
0.0
 40
1.999999999999773
100
AcDbArc
 50
180.0
 51
205.847369
  0
ARC
  5
4D5
102
{ACAD_REACTORS
330
54F
102
}
330
1F
100
AcDbEntity
  8
LC-002-002-----0
 62
     7
370
    25
100
AcDbCircle
 10
733.977923
 20
2224.647772
 30
0.0
 40
6.000000000000001
100
AcDbArc
 50
205.844972
 51
253.716483
  0
ARC
  5
4D6
102
{ACAD_REACTORS
330
54F
102
}
330
1F
100
AcDbEntity
  8
LC-002-002-----0
 62
     7
370
    25
100
AcDbCircle
 10
731.173865
 20
2215.048956
 30
0.0
 40
4.00000000000002
100
AcDbArc
 50
10.352952
 51
73.718249
  0
ARC
  5
4D7
102
{ACAD_REACTORS
330
54F
102
}
330
1F
100
AcDbEntity
  8
LC-002-002-----0
 62
     7
370
    25
100
AcDbCircle
 10
763.876127
 20
2191.647772
 30
0.0
 40
27.70479324130008
100
AcDbArc
 50
145.394244
 51
34.605756
  0
LINE
  5
4D8
102
{ACAD_REACTORS
330
54F
102
}
330
1F
100
AcDbEntity
  8
LC-002-002-----0
 62
     7
370
    25
100
AcDbLine
 10
721.126738
 20
2230.437093
 30
0.0
 11
719.376763
 21
2231.447442
 31
0.0
  0
LINE
  5
4D9
102
{ACAD_REACTORS
330
54F
102
}
330
1F
100
AcDbEntity
  8
LC-002-002-----0
 62
     7
370
    25
100
AcDbLine
 10
716.376127
 20
2236.643961
 30
0.0
 11
716.376127
 21
2252.107319
 31
0.0
  0
LINE
  5
4DA
102
{ACAD_REACTORS
330
54F
102
}
330
1F
100
AcDbEntity
  8
LC-002-002-----0
 62
     7
370
    25
100
AcDbLine
 10
708.876127
 20
2261.789777
 30
0.0
 11
708.876127
 21
2262.25
 31
0.0
  0
ARC
  5
4DB
102
{ACAD_REACTORS
330
54F
102
}
330
1F
100
AcDbEntity
  8
LC-002-002-----0
 62
     7
370
    25
100
AcDbCircle
 10
712.376127
 20
2252.107319
 30
0.0
 40
3.999999999999773
100
AcDbArc
 50
0.0
 51
75.507853
  0
ARC
  5
4DC
102
{ACAD_REACTORS
330
54F
102
}
330
1F
100
AcDbEntity
  8
LC-002-002-----0
 62
     7
370
    25
100
AcDbCircle
 10
714.876127
 20
2261.789777
 30
0.0
 40
6.000000000000114
100
AcDbArc
 50
180.0
 51
255.530548
  0
ARC
  5
4DD
102
{ACAD_REACTORS
330
54F
102
}
330
1F
100
AcDbEntity
  8
LC-002-002-----0
 62
     7
370
    25
100
AcDbCircle
 10
722.376127
 20
2236.643961
 30
0.0
 40
6.0
100
AcDbArc
 50
180.0
 51
240.011524
  0
ARC
  5
4DE
102
{ACAD_REACTORS
330
54F
102
}
330
1F
100
AcDbEntity
  8
LC-002-002-----0
 62
     7
370
    25
100
AcDbCircle
 10
718.626127
 20
2226.107319
 30
0.0
 40
4.999999999999906
100
AcDbArc
 50
7.927775
 51
59.983847
  0
ARC
  5
4DF
102
{ACAD_REACTORS
330
54F
102
}
330
1F
100
AcDbEntity
  8
LC-002-002-----0
 62
     7
370
    25
100
AcDbCircle
 10
724.37069
 20
2226.907319
 30
0.0
 40
0.8000000000000567
100
AcDbArc
 50
187.937394
 51
270.0
  0
LINE
  5
4E0
102
{ACAD_REACTORS
330
54F
102
}
330
1F
100
AcDbEntity
  8
LC-002-002-----0
 62
     7
370
    25
100
AcDbLine
 10
726.376127
 20
2226.107319
 30
0.0
 11
724.371164
 21
2226.107319
 31
0.0
  0
LINE
  5
4E1
330
1F
100
AcDbEntity
  8
LC-002-002-----0
 62
     7
370
    50
100
AcDbLine
 10
968.255558
 20
1172.549431
 30
0.0
 11
559.496697
 21
1172.549431
 31
0.0
  0
ARC
  5
4E2
330
1F
100
AcDbEntity
  8
LC-002-002-----0
 62
     7
370
    50
100
AcDbCircle
 10
968.255558
 20
1152.549431
 30
0.0
 40
20.0
100
AcDbArc
 50
0.0
 51
90.0
  0
LINE
  5
4E3
330
1F
100
AcDbEntity
  8
LC-002-002-----0
 62
     7
370
    50
100
AcDbLine
 10
988.255558
 20
1152.549431
 30
0.0
 11
988.255558
 21
867.790569
 31
0.0
  0
ARC
  5
4E4
330
1F
100
AcDbEntity
  8
LC-002-002-----0
 62
     7
370
    50
100
AcDbCircle
 10
968.255558
 20
867.790569
 30
0.0
 40
20.0
100
AcDbArc
 50
270.0
 51
0.0
  0
LINE
  5
4E5
330
1F
100
AcDbEntity
  8
LC-002-002-----0
 62
     7
370
    50
100
AcDbLine
 10
968.255558
 20
847.790569
 30
0.0
 11
559.496697
 21
847.790569
 31
0.0
  0
ARC
  5
4E6
330
1F
100
AcDbEntity
  8
LC-002-002-----0
 62
     7
370
    50
100
AcDbCircle
 10
559.496697
 20
867.790569
 30
0.0
 40
20.0
100
AcDbArc
 50
180.0
 51
270.0
  0
LINE
  5
4E7
330
1F
100
AcDbEntity
  8
LC-002-002-----0
 62
     7
370
    50
100
AcDbLine
 10
539.496697
 20
1152.549431
 30
0.0
 11
539.496697
 21
867.790569
 31
0.0
  0
ARC
  5
4E8
330
1F
100
AcDbEntity
  8
LC-002-002-----0
 62
     7
370
    50
100
AcDbCircle
 10
559.496697
 20
1152.549431
 30
0.0
 40
20.0
100
AcDbArc
 50
90.0
 51
180.0
  0
INSERT
  5
502
330
1F
100
AcDbEntity
  8
LC-006-003-----0
 62
     7
370
    25
100
AcDbBlockReference
  2
LCDIM8
 10
0.0
 20
0.0
 30
0.0
  0
INSERT
  5
51C
330
1F
100
AcDbEntity
  8
LC-006-003-----0
 62
     7
370
    25
100
AcDbBlockReference
  2
LCDIM9
 10
0.0
 20
0.0
 30
0.0
  0
INSERT
  5
52B
330
1F
100
AcDbEntity
  8
LC-006-003-----0
 62
     7
370
    25
100
AcDbBlockReference
  2
LCDIM10
 10
0.0
 20
0.0
 30
0.0
  0
TEXT
  5
52D
330
1F
100
AcDbEntity
  8
LC-010-004-----0
 62
     7
370
    35
100
AcDbText
 10
1239.732147
 20
1027.83
 30
0.0
 40
35.0
  1
Ausschnitt
 41
0.8
  7
LCTX0-400-0-0pDIN-Schrift
100
AcDbText
  0
TEXT
  5
52E
330
1F
100
AcDbEntity
  8
LC-010-004-----0
 62
     7
370
    25
100
AcDbText
 10
1241.562916
 20
963.08
 30
0.0
 40
24.5
  1
CAD-Daten auf Anfrage
 41
0.8
  7
LCTX0-400-0-0pDIN-Schrift
100
AcDbText
  0
TEXT
  5
52F
330
1F
100
AcDbEntity
  8
LC-010-004-----0
 62
     7
370
    25
100
AcDbText
 10
1199.191434
 20
474.50683
 30
0.0
 40
25.0
  1
Art. Nr. 887
 41
0.8
  7
LCTX0-400-0-0pDIN-Schrift
100
AcDbText
  0
INSERT
  5
549
330
1F
100
AcDbEntity
  8
LC-006-003-----0
 62
     7
370
    25
100
AcDbBlockReference
  2
LCDIM11
 10
0.0
 20
0.0
 30
0.0
  0
ENDSEC
  0
SECTION
  2
OBJECTS
  0
DICTIONARY
  5
C
330
0
100
AcDbDictionary
281
     1
  3
ACAD_GROUP
350
D
  3
ACAD_LAYOUT
350
1A
  3
ACAD_MLINESTYLE
350
17
  3
ACAD_PLOTSETTINGS
350
19
  3
ACAD_PLOTSTYLENAME
350
E
  0
DICTIONARY
  5
D
102
{ACAD_REACTORS
330
C
102
}
330
C
100
AcDbDictionary
281
     1
  3
LCGROUP10
350
54E
  3
LCGROUP169
350
554
  3
LCGROUP287
350
54D
  3
LCGROUP429
350
551
  3
LCGROUP431
350
550
  3
LCGROUP432
350
553
  3
LCGROUP434
350
552
  3
LCGROUP553
350
54B
  3
LCGROUP554
350
54A
  3
LCGROUP555
350
54C
  3
LCGROUP664
350
54F
  0
DICTIONARY
  5
1A
102
{ACAD_REACTORS
330
C
102
}
330
C
100
AcDbDictionary
281
     1
  3
Layout1
350
1E
  3
Layout2
350
26
  3
Model
350
22
  0
DICTIONARY
  5
17
102
{ACAD_REACTORS
330
C
102
}
330
C
100
AcDbDictionary
281
     1
  3
Standard
350
18
  0
DICTIONARY
  5
19
102
{ACAD_REACTORS
330
C
102
}
330
C
100
AcDbDictionary
281
     1
  0
ACDBDICTIONARYWDFLT
  5
E
102
{ACAD_REACTORS
330
C
102
}
330
C
100
AcDbDictionary
281
     1
  3
Normal
350
F
100
AcDbDictionaryWithDefault
340
F
  0
GROUP
  5
54E
102
{ACAD_REACTORS
330
D
102
}
330
D
100
AcDbGroup
300
GRP10
 70
     1
 71
     1
340
105
340
106
340
107
340
108
340
109
340
10A
340
10B
340
10C
340
10D
340
10E
340
10F
340
110
340
111
340
112
340
116
340
117
340
118
340
119
340
11A
340
11C
340
11D
340
11E
340
11F
340
120
340
121
340
122
340
123
340
134
340
14F
340
150
340
16A
340
16B
340
16C
340
170
340
27D
  0
GROUP
  5
554
102
{ACAD_REACTORS
330
D
102
}
330
D
100
AcDbGroup
300
GRP169
 70
     1
 71
     1
340
115
340
16D
340
16E
340
16F
340
171
340
173
340
17D
340
17E
340
17F
340
180
340
181
340
182
340
183
340
184
340
185
340
186
340
187
340
188
340
189
340
18A
340
18B
340
18C
340
18D
340
18E
340
18F
340
190
340
191
340
192
340
193
340
194
340
195
340
196
340
197
340
198
340
199
340
19A
340
19B
340
19C
340
19D
340
19E
340
19F
340
1A0
340
1A1
340
1A2
340
1A3
340
1A4
340
1A5
340
1A6
340
1A7
340
1A8
340
1A9
340
1AA
340
1AB
340
1AC
340
1AD
340
1AE
340
1AF
340
1B0
340
1B1
340
1B2
340
1B3
340
1B4
340
1B5
340
1B6
340
1B7
340
1B8
340
1B9
340
1BA
340
1BB
340
1BC
340
1BD
340
1BE
340
1BF
340
1C0
340
1C1
340
1C2
340
1C3
340
1C4
340
1C5
340
1C6
340
1C7
340
1C8
340
21E
340
238
340
252
  0
GROUP
  5
54D
102
{ACAD_REACTORS
330
D
102
}
330
D
100
AcDbGroup
300
GRP287
 70
     1
 71
     1
340
11B
340
172
340
174
340
175
340
176
340
177
340
178
340
179
340
17A
340
17B
340
17C
340
1C9
340
1CA
340
1CB
340
1CC
340
1CD
340
1CE
340
1D0
340
1D1
340
1D2
340
1D3
340
1D4
340
1D5
340
1D6
340
1D7
340
1D8
340
1D9
340
1DA
340
1DB
340
1DC
340
1DD
340
1DE
340
1DF
340
1E0
340
1E1
340
1E2
340
1E3
340
1E4
340
1E5
340
1E6
340
1E7
340
1E8
340
1E9
340
1EA
340
1EB
340
1EC
340
1ED
340
1EE
340
1EF
340
1F0
340
1F1
340
1F2
340
1F3
340
1F4
340
1F5
340
1F6
340
1F7
340
1F8
340
1F9
340
1FA
340
1FB
340
1FC
340
1FD
340
1FE
340
1FF
340
200
340
201
340
202
340
203
340
204
340
205
340
206
340
207
340
208
340
209
340
20A
340
20B
340
20C
340
20D
340
20E
340
20F
340
210
340
211
340
212
340
213
340
214
340
215
340
216
340
217
340
218
340
219
340
21A
340
21B
340
21C
340
21D
340
253
340
254
340
26E
  0
GROUP
  5
551
102
{ACAD_REACTORS
330
D
102
}
330
D
100
AcDbGroup
300
GRP429-LCMaster-LCGROUP555
 70
     1
 71
     1
340
27E
340
327
340
32C
340
32E
340
32F
340
331
340
332
340
335
340
33B
340
33C
340
33D
340
33E
340
33F
340
340
340
347
340
348
340
363
340
36D
340
37F
340
3B0
340
3B1
340
3B2
340
3B3
340
3B4
340
3B5
340
3B6
340
3B7
340
4B4
  0
GROUP
  5
550
102
{ACAD_REACTORS
330
D
102
}
330
D
100
AcDbGroup
300
GRP10-LCMaster-LCGROUP287
 70
     1
 71
     1
340
27F
340
30F
340
310
340
311
340
312
340
313
340
314
340
315
340
316
340
317
340
318
340
319
340
31A
340
31B
340
31C
340
31D
340
31E
340
31F
340
320
340
321
340
322
340
323
340
324
340
325
340
3B8
340
3B9
340
3BA
340
3BB
340
3BC
340
3BD
340
3BE
340
3BF
340
3C0
340
3C1
340
3C2
340
3C3
340
3C4
340
3C5
340
3C6
340
3C7
340
3C8
340
3C9
340
3CA
340
3CB
340
3CC
340
3CD
340
3CE
340
3CF
340
3D0
340
3D1
340
3D2
340
3D3
340
3D4
340
3D5
340
3D6
340
3D7
340
3D8
340
3D9
340
3DA
340
3DB
340
3E5
340
3EF
340
3F9
340
445
340
44F
340
459
340
463
340
4AF
340
4B0
340
4B1
340
4B2
340
4B3
340
4B5
340
4B6
  0
GROUP
  5
553
102
{ACAD_REACTORS
330
D
102
}
330
D
100
AcDbGroup
300
GRP432-LCMaster-LCGROUP431
 70
     1
 71
     1
340
28E
340
28F
340
290
340
292
340
294
340
296
340
297
340
298
340
299
340
29A
340
2A3
340
2A4
340
2A5
340
2A6
340
2A7
340
2A8
340
2A9
340
2AA
340
2AB
340
2AC
340
2AD
340
2C1
340
2C2
340
2C3
340
2C4
340
2C5
340
2C6
340
2C7
340
2C8
340
2CF
340
2D0
340
2D1
340
2D2
340
2D3
340
2D4
340
2D5
340
2D6
340
2D7
340
2D8
340
2D9
340
2DA
340
2DB
340
2DC
340
2EC
340
2ED
340
2FD
340
2FE
340
30E
340
4B7
  0
GROUP
  5
552
102
{ACAD_REACTORS
330
D
102
}
330
D
100
AcDbGroup
300
GRP434-LCMaster-LCGROUP433
 70
     1
 71
     1
340
280
340
281
340
282
340
283
340
284
340
285
340
286
340
287
340
288
340
289
340
28A
340
28B
340
28C
340
28D
340
291
340
293
340
295
340
29B
340
29C
340
29D
340
29E
340
29F
340
2A0
340
2A1
340
2A2
340
2AE
340
2AF
340
2B0
340
2B1
340
2B2
340
2B3
340
2B4
340
2B5
340
2B6
340
2B7
340
2B8
340
2B9
340
2BA
340
2BB
340
2BC
340
2BD
340
2BE
340
2BF
340
2C0
340
2CD
340
2CE
  0
GROUP
  5
54B
102
{ACAD_REACTORS
330
D
102
}
330
D
100
AcDbGroup
300
GRP553-LCMaster-LCGROUP431
 70
     1
 71
     1
340
326
340
328
340
329
340
32B
340
330
340
336
340
337
340
349
340
34A
340
34B
340
3A9
  0
GROUP
  5
54A
102
{ACAD_REACTORS
330
D
102
}
330
D
100
AcDbGroup
300
GRP554-LCMaster-LCGROUP553
 70
     1
 71
     1
340
32A
340
334
340
338
340
339
340
341
340
342
340
343
340
344
340
345
340
346
  0
GROUP
  5
54C
102
{ACAD_REACTORS
330
D
102
}
330
D
100
AcDbGroup
300
GRP555-LCMaster-LCGROUP554
 70
     1
 71
     1
340
32D
340
333
340
33A
340
3AA
340
3AB
340
3AC
340
3AD
340
3AE
340
3AF
  0
GROUP
  5
54F
102
{ACAD_REACTORS
330
D
102
}
330
D
100
AcDbGroup
300
GRP664-LCMaster-LCGROUP169
 70
     1
 71
     1
340
4B8
340
4B9
340
4BA
340
4BB
340
4BC
340
4BD
340
4BE
340
4BF
340
4C0
340
4C1
340
4C2
340
4C3
340
4C4
340
4C5
340
4C6
340
4C7
340
4C8
340
4C9
340
4CA
340
4CB
340
4CC
340
4CD
340
4CE
340
4CF
340
4D0
340
4D1
340
4D2
340
4D3
340
4D4
340
4D5
340
4D6
340
4D7
340
4D8
340
4D9
340
4DA
340
4DB
340
4DC
340
4DD
340
4DE
340
4DF
340
4E0
  0
LAYOUT
  5
1E
102
{ACAD_REACTORS
330
1A
102
}
330
1A
100
AcDbPlotSettings
  1

  2

  4

  6

 40
0.0
 41
0.0
 42
0.0
 43
0.0
 44
0.0
 45
0.0
 46
0.0
 47
0.0
 48
0.0
 49
0.0
140
0.0
141
0.0
142
1.0
143
1.0
 70
   688
 72
     0
 73
     0
 74
     5
  7

 75
    16
147
1.0
148
0.0
149
0.0
100
AcDbLayout
  1
Layout1
 70
     1
 71
     1
 10
0.0
 20
0.0
 11
2100.0
 21
2970.0
 12
0.0
 22
0.0
 32
0.0
 14
0.0
 24
0.0
 34
0.0
 15
2100.0
 25
2970.0
 35
0.0
146
0.0
 13
0.0
 23
0.0
 33
0.0
 16
1.0
 26
0.0
 36
0.0
 17
0.0
 27
1.0
 37
0.0
 76
     0
330
1B
  0
LAYOUT
  5
26
102
{ACAD_REACTORS
330
1A
102
}
330
1A
100
AcDbPlotSettings
  1

  2

  4

  6

 40
0.0
 41
0.0
 42
0.0
 43
0.0
 44
0.0
 45
0.0
 46
0.0
 47
0.0
 48
0.0
 49
0.0
140
0.0
141
0.0
142
1.0
143
1.0
 70
   688
 72
     0
 73
     0
 74
     5
  7

 75
    16
147
1.0
148
0.0
149
0.0
100
AcDbLayout
  1
Layout2
 70
     1
 71
     2
 10
0.0
 20
0.0
 11
0.0
 21
0.0
 12
0.0
 22
0.0
 32
0.0
 14
0.0
 24
0.0
 34
0.0
 15
0.0
 25
0.0
 35
0.0
146
0.0
 13
0.0
 23
0.0
 33
0.0
 16
1.0
 26
0.0
 36
0.0
 17
0.0
 27
1.0
 37
0.0
 76
     0
330
23
  0
LAYOUT
  5
22
102
{ACAD_REACTORS
330
1A
102
}
330
1A
100
AcDbPlotSettings
  1

  2

  4

  6

 40
0.0
 41
0.0
 42
0.0
 43
0.0
 44
0.0
 45
0.0
 46
0.0
 47
0.0
 48
0.0
 49
0.0
140
0.0
141
0.0
142
1.0
143
1.0
 70
  1776
 72
     0
 73
     0
 74
     0
  7

 75
     0
147
1.0
148
0.0
149
0.0
100
AcDbLayout
  1
Model
 70
     1
 71
     0
 10
0.0
 20
0.0
 11
2100.0
 21
2970.0
 12
0.0
 22
0.0
 32
0.0
 14
0.0
 24
0.0
 34
0.0
 15
2100.0
 25
2970.0
 35
0.0
146
0.0
 13
0.0
 23
0.0
 33
0.0
 16
1.0
 26
0.0
 36
0.0
 17
0.0
 27
1.0
 37
0.0
 76
     0
330
1F
  0
MLINESTYLE
  5
18
102
{ACAD_REACTORS
330
17
102
}
330
17
100
AcDbMlineStyle
  2
Standard
 70
     0
  3

 62
   256
 51
90.0
 52
90.0
 71
     2
 49
0.5
 62
   256
  6
BYLAYER
 49
-0.5
 62
   256
  6
BYLAYER
  0
ACDBPLACEHOLDER
  5
F
102
{ACAD_REACTORS
330
E
102
}
330
E
  0
ENDSEC
  0
EOF
