  0
SECTION
  2
HEADER
  9
$ACADVER
  1
AC1018
  9
$ACADMAINTVER
 70
     0
  9
$DWGCODEPAGE
  3
ANSI_1252
  9
$INSBASE
 10
0.0
 20
0.0
 30
0.0
  9
$EXTMIN
 10
0.0
 20
0.0
 30
0.0
  9
$EXTMAX
 10
2100.0
 20
2970.0
 30
0.0
  9
$LIMMIN
 10
0.0
 20
0.0
  9
$LIMMAX
 10
2100.0
 20
2970.0
  9
$ORTHOMODE
 70
     0
  9
$REGENMODE
 70
     1
  9
$FILLMODE
 70
     1
  9
$QTEXTMODE
 70
     0
  9
$MIRRTEXT
 70
     1
  9
$LTSCALE
 40
10.0
  9
$ATTMODE
 70
     1
  9
$TEXTSIZE
 40
2.5
  9
$TRACEWID
 40
1.0
  9
$TEXTSTYLE
  7
Standard
  9
$CLAYER
  8
0
  9
$CELTYPE
  6
ByLayer
  9
$CECOLOR
 62
     7
  9
$CELTSCALE
 40
1.0
  9
$DISPSILH
 70
     0
  9
$DIMSCALE
 40
10.0
  9
$DIMASZ
 40
3.5
  9
$DIMEXO
 40
0.625
  9
$DIMDLI
 40
3.75
  9
$DIMRND
 40
0.0
  9
$DIMDLE
 40
0.0
  9
$DIMEXE
 40
1.25
  9
$DIMTP
 40
0.0
  9
$DIMTM
 40
0.0
  9
$DIMTXT
 40
3.5
  9
$DIMCEN
 40
2.5
  9
$DIMTSZ
 40
0.0
  9
$DIMTOL
 70
     0
  9
$DIMLIM
 70
     0
  9
$DIMTIH
 70
     0
  9
$DIMTOH
 70
     0
  9
$DIMSE1
 70
     0
  9
$DIMSE2
 70
     0
  9
$DIMTAD
 70
     1
  9
$DIMZIN
 70
     8
  9
$DIMBLK
  1

  9
$DIMASO
 70
     1
  9
$DIMSHO
 70
     1
  9
$DIMPOST
  1

  9
$DIMAPOST
  1

  9
$DIMALT
 70
     0
  9
$DIMALTD
 70
     3
  9
$DIMALTF
 40
0.03937
  9
$DIMLFAC
 40
1.0
  9
$DIMTOFL
 70
     1
  9
$DIMTVP
 40
0.0
  9
$DIMTIX
 70
     0
  9
$DIMSOXD
 70
     0
  9
$DIMSAH
 70
     0
  9
$DIMBLK1
  1

  9
$DIMBLK2
  1

  9
$DIMSTYLE
  2
ISO-25
  9
$DIMCLRD
 70
     0
  9
$DIMCLRE
 70
     0
  9
$DIMCLRT
 70
     0
  9
$DIMTFAC
 40
1.0
  9
$DIMGAP
 40
0.625
  9
$DIMJUST
 70
     0
  9
$DIMSD1
 70
     0
  9
$DIMSD2
 70
     0
  9
$DIMTOLJ
 70
     0
  9
$DIMTZIN
 70
     8
  9
$DIMALTZ
 70
     0
  9
$DIMALTTZ
 70
     0
  9
$DIMUPT
 70
     0
  9
$DIMDEC
 70
     2
  9
$DIMTDEC
 70
     2
  9
$DIMALTU
 70
     2
  9
$DIMALTTD
 70
     3
  9
$DIMTXSTY
  7
Standard
  9
$DIMAUNIT
 70
     0
  9
$DIMADEC
 70
     0
  9
$DIMALTRND
 40
0.0
  9
$DIMAZIN
 70
     0
  9
$DIMDSEP
 70
    44
  9
$DIMATFIT
 70
     3
  9
$DIMFRAC
 70
     0
  9
$DIMLDRBLK
  1

  9
$DIMLUNIT
 70
     2
  9
$DIMLWD
 70
    -2
  9
$DIMLWE
 70
    -2
  9
$DIMTMOVE
 70
     0
  9
$LUNITS
 70
     2
  9
$LUPREC
 70
     4
  9
$SKETCHINC
 40
1.0
  9
$FILLETRAD
 40
10.0
  9
$AUNITS
 70
     0
  9
$AUPREC
 70
     0
  9
$MENU
  1
.
  9
$ELEVATION
 40
0.0
  9
$PELEVATION
 40
0.0
  9
$THICKNESS
 40
0.0
  9
$LIMCHECK
 70
     0
  9
$CHAMFERA
 40
10.0
  9
$CHAMFERB
 40
10.0
  9
$CHAMFERC
 40
20.0
  9
$CHAMFERD
 40
0.0
  9
$SKPOLY
 70
     0
  9
$TDCREATE
 40
2455524.658812129
  9
$TDUCREATE
 40
2455524.617145463
  9
$TDUPDATE
 40
2455524.658812141
  9
$TDUUPDATE
 40
2455524.617145475
  9
$TDINDWG
 40
0.0000000116
  9
$TDUSRTIMER
 40
0.0000000116
  9
$USRTIMER
 70
     1
  9
$ANGBASE
 50
0.0
  9
$ANGDIR
 70
     0
  9
$PDMODE
 70
     0
  9
$PDSIZE
 40
0.0
  9
$PLINEWID
 40
0.0
  9
$SPLFRAME
 70
     0
  9
$SPLINETYPE
 70
     6
  9
$SPLINESEGS
 70
     8
  9
$HANDSEED
  5
15F
  9
$SURFTAB1
 70
     6
  9
$SURFTAB2
 70
     6
  9
$SURFTYPE
 70
     6
  9
$SURFU
 70
     6
  9
$SURFV
 70
     6
  9
$UCSBASE
  2

  9
$UCSNAME
  2

  9
$UCSORG
 10
0.0
 20
0.0
 30
0.0
  9
$UCSXDIR
 10
1.0
 20
0.0
 30
0.0
  9
$UCSYDIR
 10
0.0
 20
1.0
 30
0.0
  9
$UCSORTHOREF
  2

  9
$UCSORTHOVIEW
 70
     0
  9
$UCSORGTOP
 10
0.0
 20
0.0
 30
0.0
  9
$UCSORGBOTTOM
 10
0.0
 20
0.0
 30
0.0
  9
$UCSORGLEFT
 10
0.0
 20
0.0
 30
0.0
  9
$UCSORGRIGHT
 10
0.0
 20
0.0
 30
0.0
  9
$UCSORGFRONT
 10
0.0
 20
0.0
 30
0.0
  9
$UCSORGBACK
 10
0.0
 20
0.0
 30
0.0
  9
$PUCSBASE
  2

  9
$PUCSNAME
  2

  9
$PUCSORG
 10
0.0
 20
0.0
 30
0.0
  9
$PUCSXDIR
 10
1.0
 20
0.0
 30
0.0
  9
$PUCSYDIR
 10
0.0
 20
1.0
 30
0.0
  9
$PUCSORTHOREF
  2

  9
$PUCSORTHOVIEW
 70
     0
  9
$PUCSORGTOP
 10
0.0
 20
0.0
 30
0.0
  9
$PUCSORGBOTTOM
 10
0.0
 20
0.0
 30
0.0
  9
$PUCSORGLEFT
 10
0.0
 20
0.0
 30
0.0
  9
$PUCSORGRIGHT
 10
0.0
 20
0.0
 30
0.0
  9
$PUCSORGFRONT
 10
0.0
 20
0.0
 30
0.0
  9
$PUCSORGBACK
 10
0.0
 20
0.0
 30
0.0
  9
$USERI1
 70
     0
  9
$USERI2
 70
     0
  9
$USERI3
 70
     0
  9
$USERI4
 70
     0
  9
$USERI5
 70
     0
  9
$USERR1
 40
0.0
  9
$USERR2
 40
0.0
  9
$USERR3
 40
0.0
  9
$USERR4
 40
0.0
  9
$USERR5
 40
0.0
  9
$WORLDVIEW
 70
     1
  9
$SHADEDGE
 70
     3
  9
$SHADEDIF
 70
    70
  9
$TILEMODE
 70
     1
  9
$MAXACTVP
 70
    64
  9
$PINSBASE
 10
0.0
 20
0.0
 30
0.0
  9
$PLIMCHECK
 70
     0
  9
$PEXTMIN
 10
0.0
 20
0.0
 30
0.0
  9
$PEXTMAX
 10
2100.0
 20
2970.0
 30
0.0
  9
$PLIMMIN
 10
0.0
 20
0.0
  9
$PLIMMAX
 10
2100.0
 20
2970.0
  9
$UNITMODE
 70
     0
  9
$VISRETAIN
 70
     1
  9
$PLINEGEN
 70
     0
  9
$PSLTSCALE
 70
     1
  9
$TREEDEPTH
 70
  3020
  9
$CMLSTYLE
  2
Standard
  9
$CMLJUST
 70
     0
  9
$CMLSCALE
 40
20.0
  9
$PROXYGRAPHICS
 70
     1
  9
$MEASUREMENT
 70
     1
  9
$CELWEIGHT
370
    -1
  9
$ENDCAPS
280
     0
  9
$JOINSTYLE
280
     0
  9
$LWDISPLAY
290
     0
  9
$INSUNITS
 70
     4
  9
$HYPERLINKBASE
  1

  9
$STYLESHEET
  1

  9
$XEDIT
290
     1
  9
$CEPSNTYPE
380
     0
  9
$PSTYLEMODE
290
     1
  9
$FINGERPRINTGUID
  2
{FAEB1C30-E019-11D5-929B-00C0DF256EC4}
  9
$VERSIONGUID
  2
{FAEB1C32-E019-11D5-929B-00C0DF256EC4}
  9
$EXTNAMES
290
     1
  9
$PSVPSCALE
 40
0.0
  9
$OLESTARTUP
290
     0
  9
$SORTENTS
280
   127
  9
$INDEXCTL
280
     0
  9
$HIDETEXT
280
     1
  9
$XCLIPFRAME
290
     0
  9
$HALOGAP
280
     0
  9
$OBSCOLOR
 70
   257
  9
$OBSLTYPE
280
     0
  9
$INTERSECTIONDISPLAY
280
     0
  9
$INTERSECTIONCOLOR
 70
   257
  9
$DIMASSOC
280
     2
  9
$PROJECTNAME
  1

  0
ENDSEC
  0
SECTION
  2
CLASSES
  0
CLASS
  1
ACDBDICTIONARYWDFLT
  2
AcDbDictionaryWithDefault
  3
ObjectDBX Classes
 90
        0
 91
        1
280
     0
281
     0
  0
ENDSEC
  0
SECTION
  2
TABLES
  0
TABLE
  2
VPORT
  5
8
330
0
100
AcDbSymbolTable
 70
     2
  0
VPORT
  5
29
330
8
100
AcDbSymbolTableRecord
100
AcDbViewportTableRecord
  2
*ACTIVE
 70
     0
 10
0.0
 20
0.0
 11
1.0
 21
1.0
 12
1050.0
 22
1485.0
 13
0.0
 23
0.0
 14
1.0
 24
1.0
 15
0.0
 25
0.0
 16
0.0
 26
0.0
 36
1.0
 17
0.0
 27
0.0
 37
0.0
 40
2970.0
 41
0.707071
 42
50.0
 43
0.0
 44
0.0
 50
0.0
 51
0.0
 71
    16
 72
   100
 73
     1
 74
     0
 75
     0
 76
     0
 77
     0
 78
     0
281
     0
 65
     0
110
0.0
120
0.0
130
0.0
111
1.0
121
0.0
131
0.0
112
0.0
122
1.0
132
0.0
 79
     0
146
0.0
  0
ENDTAB
  0
TABLE
  2
LTYPE
  5
5
330
0
100
AcDbSymbolTable
 70
     2
  0
LTYPE
  5
14
330
5
100
AcDbSymbolTableRecord
100
AcDbLinetypeTableRecord
  2
ByBlock
 70
     0
  3

 72
    65
 73
     0
 40
0.0
  0
LTYPE
  5
15
330
5
100
AcDbSymbolTableRecord
100
AcDbLinetypeTableRecord
  2
ByLayer
 70
     0
  3

 72
    65
 73
     0
 40
0.0
  0
LTYPE
  5
16
330
5
100
AcDbSymbolTableRecord
100
AcDbLinetypeTableRecord
  2
Continuous
 70
     0
  3
Solid line
 72
    65
 73
     0
 40
0.0
  0
LTYPE
  5
2A
330
5
100
AcDbSymbolTableRecord
100
AcDbLinetypeTableRecord
  2
DASHED
 70
     0
  3
__ __ __ __ __
 72
    65
 73
     2
 40
6.25
 49
5.0
 74
     4
 75
     0
340
0
 46
1.0
 50
0.0
 44
0.0
 45
0.0
 49
-1.25
 74
     4
 75
     0
340
0
 46
1.0
 50
0.0
 44
0.0
 45
0.0
  0
ENDTAB
  0
TABLE
  2
LAYER
  5
2
330
0
100
AcDbSymbolTable
 70
     9
  0
LAYER
  5
10
330
2
100
AcDbSymbolTableRecord
100
AcDbLayerTableRecord
  2
0
 70
     0
 62
     7
  6
Continuous
370
    -3
390
F
  0
LAYER
  5
2B
330
2
100
AcDbSymbolTableRecord
100
AcDbLayerTableRecord
  2
LC-INFO-1-10-mm-A4H-0
 70
     1
 62
     7
  6
ByBlock
370
    -3
390
F
  0
LAYER
  5
2C
330
2
100
AcDbSymbolTableRecord
100
AcDbLayerTableRecord
  2
LC-CUT-HIDDEN
 70
     0
 62
     7
  6
DASHED
370
    -3
390
F
  0
LAYER
  5
2D
330
2
100
AcDbSymbolTableRecord
100
AcDbLayerTableRecord
  2
LC-VIEWPORT
 70
     0
 62
     7
  6
ByBlock
370
    -3
390
F
  0
LAYER
  5
2E
330
2
100
AcDbSymbolTableRecord
100
AcDbLayerTableRecord
  2
LC-3D-HIDDEN
 70
     0
 62
     9
  6
DASHED
370
    -3
390
F
  0
LAYER
  5
30
330
2
100
AcDbSymbolTableRecord
100
AcDbLayerTableRecord
  2
LC-001-002-----0
 70
     0
 62
     1
  6
ByBlock
370
    -3
390
F
  0
LAYER
  5
CA
330
2
100
AcDbSymbolTableRecord
100
AcDbLayerTableRecord
  2
LC-002-003-MTH-0
 70
     0
 62
     2
  6
ByBlock
370
    -3
390
F
  0
LAYER
  5
CD
330
2
100
AcDbSymbolTableRecord
100
AcDbLayerTableRecord
  2
LC-003-003-MTG-0
 70
     0
 62
     2
  6
ByBlock
370
    -3
390
F
  0
LAYER
  5
CF
330
2
100
AcDbSymbolTableRecord
100
AcDbLayerTableRecord
  2
LC-004-003-----0
 70
     0
 62
     2
  6
ByBlock
370
    -3
390
F
  0
ENDTAB
  0
TABLE
  2
STYLE
  5
3
330
0
100
AcDbSymbolTable
 70
     2
  0
STYLE
  5
11
330
3
100
AcDbSymbolTableRecord
100
AcDbTextStyleTableRecord
  2
Standard
 70
     0
 40
0.0
 41
1.0
 50
0.0
 71
     0
 42
2.5
  3
txt
  4

  0
STYLE
  5
2F
330
3
100
AcDbSymbolTableRecord
100
AcDbTextStyleTableRecord
  2
LCTX0-400-0-0pDIN-Schrift
 70
     0
 40
0.0
 41
0.7
 50
0.0
 71
     0
 42
3.5
  3
TXT
  4

  0
ENDTAB
  0
TABLE
  2
VIEW
  5
6
330
0
100
AcDbSymbolTable
 70
     0
  0
ENDTAB
  0
TABLE
  2
UCS
  5
7
330
0
100
AcDbSymbolTable
 70
     0
  0
ENDTAB
  0
TABLE
  2
APPID
  5
9
330
0
100
AcDbSymbolTable
 70
     1
  0
APPID
  5
12
330
9
100
AcDbSymbolTableRecord
100
AcDbRegAppTableRecord
  2
ACAD
 70
     0
  0
ENDTAB
  0
TABLE
  2
DIMSTYLE
  5
A
330
0
100
AcDbSymbolTable
 70
     1
100
AcDbDimStyleTable
  0
DIMSTYLE
105
27
330
A
100
AcDbSymbolTableRecord
100
AcDbDimStyleTableRecord
  2
ISO-25
 70
     0
 41
2.5
 42
0.625
 43
3.75
 44
1.25
 73
     0
 74
     0
 77
     1
 78
     8
140
2.5
141
2.5
143
0.03937
147
0.625
171
     3
172
     1
271
     2
272
     2
274
     3
278
    44
283
     0
284
     8
340
11
  0
ENDTAB
  0
TABLE
  2
BLOCK_RECORD
  5
1
330
0
100
AcDbSymbolTable
 70
     4
  0
BLOCK_RECORD
  5
1F
330
1
100
AcDbSymbolTableRecord
100
AcDbBlockTableRecord
  2
*Model_Space
340
22
  0
BLOCK_RECORD
  5
1B
330
1
100
AcDbSymbolTableRecord
100
AcDbBlockTableRecord
  2
*Paper_Space
340
1E
  0
BLOCK_RECORD
  5
23
330
1
100
AcDbSymbolTableRecord
100
AcDbBlockTableRecord
  2
*Paper_Space0
340
26
  0
BLOCK_RECORD
  5
C7
330
1
100
AcDbSymbolTableRecord
100
AcDbBlockTableRecord
  2
LCDIM1
340
0
102
{BLKREFS
331
E3
102
}
  0
BLOCK_RECORD
  5
E4
330
1
100
AcDbSymbolTableRecord
100
AcDbBlockTableRecord
  2
LCDIM2
340
0
102
{BLKREFS
331
FD
102
}
  0
BLOCK_RECORD
  5
FE
330
1
100
AcDbSymbolTableRecord
100
AcDbBlockTableRecord
  2
LCDIM3
340
0
102
{BLKREFS
331
117
102
}
  0
ENDTAB
  0
ENDSEC
  0
SECTION
  2
BLOCKS
  0
BLOCK
  5
20
330
1F
100
AcDbEntity
  8
0
100
AcDbBlockBegin
  2
*Model_Space
 70
     0
 71
     0
 10
0.0
 20
0.0
 30
0.0
  3
*Model_Space
  1

  0
ENDBLK
  5
21
330
1F
100
AcDbEntity
  8
0
100
AcDbBlockEnd
  0
BLOCK
  5
1C
330
1B
100
AcDbEntity
 67
     1
  8
0
100
AcDbBlockBegin
  2
*Paper_Space
 70
     0
 71
     0
 10
0.0
 20
0.0
 30
0.0
  3
*Paper_Space
  1

  0
ENDBLK
  5
1D
330
1B
100
AcDbEntity
 67
     1
  8
0
100
AcDbBlockEnd
  0
BLOCK
  5
24
330
23
100
AcDbEntity
  8
0
100
AcDbBlockBegin
  2
*Paper_Space0
 70
     0
 71
     0
 10
0.0
 20
0.0
 30
0.0
  3
*Paper_Space0
  1

  0
ENDBLK
  5
25
330
23
100
AcDbEntity
  8
0
100
AcDbBlockEnd
  0
BLOCK
  5
C8
330
C7
100
AcDbEntity
  8
0
100
AcDbBlockBegin
  2
LCDIM1
 70
     0
 71
     0
 10
0.0
 20
0.0
 30
0.0
  3
LCDIM1
  1

  4
LCDIM1
  0
LINE
  5
CB
330
C7
100
AcDbEntity
  8
LC-002-003-MTH-0
 62
     7
370
    25
100
AcDbLine
 10
1267.22937
 20
1366.2
 30
0.0
 11
1515.0
 21
1366.2
 31
0.0
  0
LINE
  5
CC
330
C7
100
AcDbEntity
  8
LC-002-003-MTH-0
 62
     7
370
    25
100
AcDbLine
 10
1267.22937
 20
1925.0
 30
0.0
 11
1515.0
 21
1925.0
 31
0.0
  0
LINE
  5
CE
330
C7
100
AcDbEntity
  8
LC-003-003-MTG-0
 62
     7
370
    25
100
AcDbLine
 10
1500.0
 20
1366.2
 30
0.0
 11
1500.0
 21
1925.0
 31
0.0
  0
LINE
  5
D0
330
C7
100
AcDbEntity
  8
LC-004-003-----0
 62
     7
370
    25
100
AcDbLine
 10
1496.736845
 20
1390.986122
 30
0.0
 11
1500.0
 21
1366.2
 31
0.0
  0
LINE
  5
D1
330
C7
100
AcDbEntity
  8
LC-004-003-----0
 62
     7
370
    25
100
AcDbLine
 10
1500.0
 20
1366.2
 30
0.0
 11
1503.263155
 21
1390.986122
 31
0.0
  0
LINE
  5
D2
330
C7
100
AcDbEntity
  8
LC-004-003-----0
 62
     7
370
    25
100
AcDbLine
 10
1503.263155
 20
1390.986122
 30
0.0
 11
1496.736845
 21
1390.986122
 31
0.0
  0
LINE
  5
D3
330
C7
100
AcDbEntity
  8
LC-004-003-----0
 62
     7
370
    25
100
AcDbLine
 10
1497.585265
 20
1391.04173
 30
0.0
 11
1500.0
 21
1372.7
 31
0.0
  0
LINE
  5
D4
330
C7
100
AcDbEntity
  8
LC-004-003-----0
 62
     7
370
    25
100
AcDbLine
 10
1500.0
 20
1372.7
 30
0.0
 11
1502.414735
 21
1391.04173
 31
0.0
  0
LINE
  5
D5
330
C7
100
AcDbEntity
  8
LC-004-003-----0
 62
     7
370
    25
100
AcDbLine
 10
1498.433686
 20
1391.097339
 30
0.0
 11
1500.0
 21
1379.2
 31
0.0
  0
LINE
  5
D6
330
C7
100
AcDbEntity
  8
LC-004-003-----0
 62
     7
370
    25
100
AcDbLine
 10
1500.0
 20
1379.2
 30
0.0
 11
1501.566314
 21
1391.097339
 31
0.0
  0
LINE
  5
D7
330
C7
100
AcDbEntity
  8
LC-004-003-----0
 62
     7
370
    25
100
AcDbLine
 10
1499.282106
 20
1391.152947
 30
0.0
 11
1500.0
 21
1385.7
 31
0.0
  0
LINE
  5
D8
330
C7
100
AcDbEntity
  8
LC-004-003-----0
 62
     7
370
    25
100
AcDbLine
 10
1500.0
 20
1385.7
 30
0.0
 11
1500.717894
 21
1391.152947
 31
0.0
  0
LINE
  5
D9
330
C7
100
AcDbEntity
  8
LC-004-003-----0
 62
     7
370
    25
100
AcDbLine
 10
1503.263155
 20
1900.213878
 30
0.0
 11
1500.0
 21
1925.0
 31
0.0
  0
LINE
  5
DA
330
C7
100
AcDbEntity
  8
LC-004-003-----0
 62
     7
370
    25
100
AcDbLine
 10
1500.0
 20
1925.0
 30
0.0
 11
1496.736845
 21
1900.213878
 31
0.0
  0
LINE
  5
DB
330
C7
100
AcDbEntity
  8
LC-004-003-----0
 62
     7
370
    25
100
AcDbLine
 10
1496.736845
 20
1900.213878
 30
0.0
 11
1503.263155
 21
1900.213878
 31
0.0
  0
LINE
  5
DC
330
C7
100
AcDbEntity
  8
LC-004-003-----0
 62
     7
370
    25
100
AcDbLine
 10
1502.414735
 20
1900.15827
 30
0.0
 11
1500.0
 21
1918.5
 31
0.0
  0
LINE
  5
DD
330
C7
100
AcDbEntity
  8
LC-004-003-----0
 62
     7
370
    25
100
AcDbLine
 10
1500.0
 20
1918.5
 30
0.0
 11
1497.585265
 21
1900.15827
 31
0.0
  0
LINE
  5
DE
330
C7
100
AcDbEntity
  8
LC-004-003-----0
 62
     7
370
    25
100
AcDbLine
 10
1501.566314
 20
1900.102661
 30
0.0
 11
1500.0
 21
1912.0
 31
0.0
  0
LINE
  5
DF
330
C7
100
AcDbEntity
  8
LC-004-003-----0
 62
     7
370
    25
100
AcDbLine
 10
1500.0
 20
1912.0
 30
0.0
 11
1498.433686
 21
1900.102661
 31
0.0
  0
LINE
  5
E0
330
C7
100
AcDbEntity
  8
LC-004-003-----0
 62
     7
370
    25
100
AcDbLine
 10
1500.717894
 20
1900.047053
 30
0.0
 11
1500.0
 21
1905.5
 31
0.0
  0
LINE
  5
E1
330
C7
100
AcDbEntity
  8
LC-004-003-----0
 62
     7
370
    25
100
AcDbLine
 10
1500.0
 20
1905.5
 30
0.0
 11
1499.282106
 21
1900.047053
 31
0.0
  0
TEXT
  5
E2
330
C7
100
AcDbEntity
  8
LC-004-003-----0
 62
     7
370
    25
100
AcDbText
 10
1485.0
 20
1557.376754
 30
0.0
 40
25.0
  1
558,8 (22")
 50
90.0
 41
0.7
  7
LCTX0-400-0-0pDIN-Schrift
 72
     1
 11
1485.0
 21
1638.210087
 31
0.0
100
AcDbText
  0
ENDBLK
  5
C9
330
C7
100
AcDbEntity
  8
0
100
AcDbBlockEnd
  0
BLOCK
  5
E5
330
E4
100
AcDbEntity
  8
0
100
AcDbBlockBegin
  2
LCDIM2
 70
     0
 71
     0
 10
0.0
 20
0.0
 30
0.0
  3
LCDIM2
  1

  4
LCDIM2
  0
LINE
  5
E7
330
E4
100
AcDbEntity
  8
LC-002-003-MTH-0
 62
     7
370
    25
100
AcDbLine
 10
1130.02937
 20
2080.715418
 30
0.0
 11
1365.0
 21
2080.715418
 31
0.0
  0
LINE
  5
E8
330
E4
100
AcDbEntity
  8
LC-002-003-MTH-0
 62
     7
370
    25
100
AcDbLine
 10
1288.339895
 20
2321.715418
 30
0.0
 11
1365.0
 21
2321.715418
 31
0.0
  0
LINE
  5
E9
330
E4
100
AcDbEntity
  8
LC-003-003-MTG-0
 62
     7
370
    25
100
AcDbLine
 10
1350.0
 20
2080.715418
 30
0.0
 11
1350.0
 21
2321.715418
 31
0.0
  0
LINE
  5
EA
330
E4
100
AcDbEntity
  8
LC-004-003-----0
 62
     7
370
    25
100
AcDbLine
 10
1346.736845
 20
2105.50154
 30
0.0
 11
1350.0
 21
2080.715418
 31
0.0
  0
LINE
  5
EB
330
E4
100
AcDbEntity
  8
LC-004-003-----0
 62
     7
370
    25
100
AcDbLine
 10
1350.0
 20
2080.715418
 30
0.0
 11
1353.263155
 21
2105.50154
 31
0.0
  0
LINE
  5
EC
330
E4
100
AcDbEntity
  8
LC-004-003-----0
 62
     7
370
    25
100
AcDbLine
 10
1353.263155
 20
2105.50154
 30
0.0
 11
1346.736845
 21
2105.50154
 31
0.0
  0
LINE
  5
ED
330
E4
100
AcDbEntity
  8
LC-004-003-----0
 62
     7
370
    25
100
AcDbLine
 10
1347.585265
 20
2105.557148
 30
0.0
 11
1350.0
 21
2087.215418
 31
0.0
  0
LINE
  5
EE
330
E4
100
AcDbEntity
  8
LC-004-003-----0
 62
     7
370
    25
100
AcDbLine
 10
1350.0
 20
2087.215418
 30
0.0
 11
1352.414735
 21
2105.557148
 31
0.0
  0
LINE
  5
EF
330
E4
100
AcDbEntity
  8
LC-004-003-----0
 62
     7
370
    25
100
AcDbLine
 10
1348.433686
 20
2105.612757
 30
0.0
 11
1350.0
 21
2093.715418
 31
0.0
  0
LINE
  5
F0
330
E4
100
AcDbEntity
  8
LC-004-003-----0
 62
     7
370
    25
100
AcDbLine
 10
1350.0
 20
2093.715418
 30
0.0
 11
1351.566314
 21
2105.612757
 31
0.0
  0
LINE
  5
F1
330
E4
100
AcDbEntity
  8
LC-004-003-----0
 62
     7
370
    25
100
AcDbLine
 10
1349.282106
 20
2105.668365
 30
0.0
 11
1350.0
 21
2100.215418
 31
0.0
  0
LINE
  5
F2
330
E4
100
AcDbEntity
  8
LC-004-003-----0
 62
     7
370
    25
100
AcDbLine
 10
1350.0
 20
2100.215418
 30
0.0
 11
1350.717894
 21
2105.668365
 31
0.0
  0
LINE
  5
F3
330
E4
100
AcDbEntity
  8
LC-004-003-----0
 62
     7
370
    25
100
AcDbLine
 10
1353.263155
 20
2296.929296
 30
0.0
 11
1350.0
 21
2321.715418
 31
0.0
  0
LINE
  5
F4
330
E4
100
AcDbEntity
  8
LC-004-003-----0
 62
     7
370
    25
100
AcDbLine
 10
1350.0
 20
2321.715418
 30
0.0
 11
1346.736845
 21
2296.929296
 31
0.0
  0
LINE
  5
F5
330
E4
100
AcDbEntity
  8
LC-004-003-----0
 62
     7
370
    25
100
AcDbLine
 10
1346.736845
 20
2296.929296
 30
0.0
 11
1353.263155
 21
2296.929296
 31
0.0
  0
LINE
  5
F6
330
E4
100
AcDbEntity
  8
LC-004-003-----0
 62
     7
370
    25
100
AcDbLine
 10
1352.414735
 20
2296.873688
 30
0.0
 11
1350.0
 21
2315.215418
 31
0.0
  0
LINE
  5
F7
330
E4
100
AcDbEntity
  8
LC-004-003-----0
 62
     7
370
    25
100
AcDbLine
 10
1350.0
 20
2315.215418
 30
0.0
 11
1347.585265
 21
2296.873688
 31
0.0
  0
LINE
  5
F8
330
E4
100
AcDbEntity
  8
LC-004-003-----0
 62
     7
370
    25
100
AcDbLine
 10
1351.566314
 20
2296.818079
 30
0.0
 11
1350.0
 21
2308.715418
 31
0.0
  0
LINE
  5
F9
330
E4
100
AcDbEntity
  8
LC-004-003-----0
 62
     7
370
    25
100
AcDbLine
 10
1350.0
 20
2308.715418
 30
0.0
 11
1348.433686
 21
2296.818079
 31
0.0
  0
LINE
  5
FA
330
E4
100
AcDbEntity
  8
LC-004-003-----0
 62
     7
370
    25
100
AcDbLine
 10
1350.717894
 20
2296.762471
 30
0.0
 11
1350.0
 21
2302.215418
 31
0.0
  0
LINE
  5
FB
330
E4
100
AcDbEntity
  8
LC-004-003-----0
 62
     7
370
    25
100
AcDbLine
 10
1350.0
 20
2302.215418
 30
0.0
 11
1349.282106
 21
2296.762471
 31
0.0
  0
TEXT
  5
FC
330
E4
100
AcDbEntity
  8
LC-004-003-----0
 62
     7
370
    25
100
AcDbText
 10
1335.0
 20
2122.567417
 30
0.0
 40
25.0
  1
241 (9.49")
 50
90.0
 41
0.7
  7
LCTX0-400-0-0pDIN-Schrift
 72
     1
 11
1335.0
 21
2203.400751
 31
0.0
100
AcDbText
  0
ENDBLK
  5
E6
330
E4
100
AcDbEntity
  8
0
100
AcDbBlockEnd
  0
BLOCK
  5
FF
330
FE
100
AcDbEntity
  8
0
100
AcDbBlockBegin
  2
LCDIM3
 70
     0
 71
     0
 10
0.0
 20
0.0
 30
0.0
  3
LCDIM3
  1

  4
LCDIM3
  0
LINE
  5
101
330
FE
100
AcDbEntity
  8
LC-002-003-MTH-0
 62
     7
370
    25
100
AcDbLine
 10
454.42937
 20
1391.6
 30
0.0
 11
454.42937
 21
1185.0
 31
0.0
  0
LINE
  5
102
330
FE
100
AcDbEntity
  8
LC-002-003-MTH-0
 62
     7
370
    25
100
AcDbLine
 10
1292.62937
 20
1391.6
 30
0.0
 11
1292.62937
 21
1185.0
 31
0.0
  0
LINE
  5
103
330
FE
100
AcDbEntity
  8
LC-003-003-MTG-0
 62
     7
370
    25
100
AcDbLine
 10
454.42937
 20
1200.0
 30
0.0
 11
1292.62937
 21
1200.0
 31
0.0
  0
LINE
  5
104
330
FE
100
AcDbEntity
  8
LC-004-003-----0
 62
     7
370
    25
100
AcDbLine
 10
479.215492
 20
1203.263155
 30
0.0
 11
454.42937
 21
1200.0
 31
0.0
  0
LINE
  5
105
330
FE
100
AcDbEntity
  8
LC-004-003-----0
 62
     7
370
    25
100
AcDbLine
 10
454.42937
 20
1200.0
 30
0.0
 11
479.215492
 21
1196.736845
 31
0.0
  0
LINE
  5
106
330
FE
100
AcDbEntity
  8
LC-004-003-----0
 62
     7
370
    25
100
AcDbLine
 10
479.215492
 20
1196.736845
 30
0.0
 11
479.215492
 21
1203.263155
 31
0.0
  0
LINE
  5
107
330
FE
100
AcDbEntity
  8
LC-004-003-----0
 62
     7
370
    25
100
AcDbLine
 10
479.271101
 20
1202.414735
 30
0.0
 11
460.92937
 21
1200.0
 31
0.0
  0
LINE
  5
108
330
FE
100
AcDbEntity
  8
LC-004-003-----0
 62
     7
370
    25
100
AcDbLine
 10
460.92937
 20
1200.0
 30
0.0
 11
479.271101
 21
1197.585265
 31
0.0
  0
LINE
  5
109
330
FE
100
AcDbEntity
  8
LC-004-003-----0
 62
     7
370
    25
100
AcDbLine
 10
479.326709
 20
1201.566314
 30
0.0
 11
467.42937
 21
1200.0
 31
0.0
  0
LINE
  5
10A
330
FE
100
AcDbEntity
  8
LC-004-003-----0
 62
     7
370
    25
100
AcDbLine
 10
467.42937
 20
1200.0
 30
0.0
 11
479.326709
 21
1198.433686
 31
0.0
  0
LINE
  5
10B
330
FE
100
AcDbEntity
  8
LC-004-003-----0
 62
     7
370
    25
100
AcDbLine
 10
479.382317
 20
1200.717894
 30
0.0
 11
473.929371
 21
1200.0
 31
0.0
  0
LINE
  5
10C
330
FE
100
AcDbEntity
  8
LC-004-003-----0
 62
     7
370
    25
100
AcDbLine
 10
473.929371
 20
1200.0
 30
0.0
 11
479.382317
 21
1199.282106
 31
0.0
  0
LINE
  5
10D
330
FE
100
AcDbEntity
  8
LC-004-003-----0
 62
     7
370
    25
100
AcDbLine
 10
1267.843248
 20
1196.736845
 30
0.0
 11
1292.62937
 21
1200.0
 31
0.0
  0
LINE
  5
10E
330
FE
100
AcDbEntity
  8
LC-004-003-----0
 62
     7
370
    25
100
AcDbLine
 10
1292.62937
 20
1200.0
 30
0.0
 11
1267.843248
 21
1203.263155
 31
0.0
  0
LINE
  5
10F
330
FE
100
AcDbEntity
  8
LC-004-003-----0
 62
     7
370
    25
100
AcDbLine
 10
1267.843248
 20
1203.263155
 30
0.0
 11
1267.843248
 21
1196.736845
 31
0.0
  0
LINE
  5
110
330
FE
100
AcDbEntity
  8
LC-004-003-----0
 62
     7
370
    25
100
AcDbLine
 10
1267.78764
 20
1197.585265
 30
0.0
 11
1286.12937
 21
1200.0
 31
0.0
  0
LINE
  5
111
330
FE
100
AcDbEntity
  8
LC-004-003-----0
 62
     7
370
    25
100
AcDbLine
 10
1286.12937
 20
1200.0
 30
0.0
 11
1267.78764
 21
1202.414735
 31
0.0
  0
LINE
  5
112
330
FE
100
AcDbEntity
  8
LC-004-003-----0
 62
     7
370
    25
100
AcDbLine
 10
1267.732032
 20
1198.433686
 30
0.0
 11
1279.62937
 21
1200.0
 31
0.0
  0
LINE
  5
113
330
FE
100
AcDbEntity
  8
LC-004-003-----0
 62
     7
370
    25
100
AcDbLine
 10
1279.62937
 20
1200.0
 30
0.0
 11
1267.732032
 21
1201.566314
 31
0.0
  0
LINE
  5
114
330
FE
100
AcDbEntity
  8
LC-004-003-----0
 62
     7
370
    25
100
AcDbLine
 10
1267.676423
 20
1199.282106
 30
0.0
 11
1273.12937
 21
1200.0
 31
0.0
  0
LINE
  5
115
330
FE
100
AcDbEntity
  8
LC-004-003-----0
 62
     7
370
    25
100
AcDbLine
 10
1273.12937
 20
1200.0
 30
0.0
 11
1267.676423
 21
1200.717894
 31
0.0
  0
TEXT
  5
116
330
FE
100
AcDbEntity
  8
LC-004-003-----0
 62
     7
370
    25
100
AcDbText
 10
802.933088
 20
1215.0
 30
0.0
 40
25.0
  1
838,2 (33")
 41
0.7
  7
LCTX0-400-0-0pDIN-Schrift
 72
     1
 11
883.766421
 21
1215.0
 31
0.0
100
AcDbText
  0
ENDBLK
  5
100
330
FE
100
AcDbEntity
  8
0
100
AcDbBlockEnd
  0
ENDSEC
  0
SECTION
  2
ENTITIES
  0
ARC
  5
31
102
{ACAD_REACTORS
330
15B
102
}
330
1F
100
AcDbEntity
  8
LC-001-002-----0
 62
     7
370
    50
100
AcDbCircle
 10
508.42937
 20
1797.0
 30
0.0
 40
20.0
100
AcDbArc
 50
90.0
 51
180.0
  0
ARC
  5
32
102
{ACAD_REACTORS
330
15B
102
}
330
1F
100
AcDbEntity
  8
LC-001-002-----0
 62
     7
370
    50
100
AcDbCircle
 10
1238.62937
 20
1797.0
 30
0.0
 40
20.0
100
AcDbArc
 50
0.0
 51
90.0
  0
ARC
  5
33
102
{ACAD_REACTORS
330
15B
102
}
330
1F
100
AcDbEntity
  8
LC-001-002-----0
 62
     7
370
    50
100
AcDbCircle
 10
1238.62937
 20
1420.2
 30
0.0
 40
20.0
100
AcDbArc
 50
270.0
 51
0.0
  0
ARC
  5
34
102
{ACAD_REACTORS
330
15B
102
}
330
1F
100
AcDbEntity
  8
LC-001-002-----0
 62
     7
370
    50
100
AcDbCircle
 10
508.42937
 20
1420.2
 30
0.0
 40
20.0
100
AcDbArc
 50
180.0
 51
270.0
  0
ARC
  5
35
102
{ACAD_REACTORS
330
15B
102
}
330
1F
100
AcDbEntity
  8
LC-001-002-----0
 62
     7
370
    50
100
AcDbCircle
 10
906.42937
 20
1797.0
 30
0.0
 40
20.0
100
AcDbArc
 50
90.0
 51
180.0
  0
ARC
  5
36
102
{ACAD_REACTORS
330
15B
102
}
330
1F
100
AcDbEntity
  8
LC-001-002-----0
 62
     7
370
    50
100
AcDbCircle
 10
840.62937
 20
1797.0
 30
0.0
 40
20.0
100
AcDbArc
 50
0.0
 51
90.0
  0
ARC
  5
37
102
{ACAD_REACTORS
330
15B
102
}
330
1F
100
AcDbEntity
  8
LC-001-002-----0
 62
     7
370
    50
100
AcDbCircle
 10
840.62937
 20
1420.2
 30
0.0
 40
20.0
100
AcDbArc
 50
270.0
 51
0.0
  0
ARC
  5
38
102
{ACAD_REACTORS
330
15B
102
}
330
1F
100
AcDbEntity
  8
LC-001-002-----0
 62
     7
370
    50
100
AcDbCircle
 10
906.42937
 20
1420.2
 30
0.0
 40
20.0
100
AcDbArc
 50
180.0
 51
270.0
  0
CIRCLE
  5
39
102
{ACAD_REACTORS
330
15B
102
}
330
1F
100
AcDbEntity
  8
LC-001-002-----0
  6
DASHED
 62
     7
370
    25
100
AcDbCircle
 10
873.52937
 20
1870.0
 30
0.0
 40
17.5
  0
CIRCLE
  5
3A
102
{ACAD_REACTORS
330
15B
102
}
330
1F
100
AcDbEntity
  8
LC-001-002-----0
 62
     7
370
    50
100
AcDbCircle
 10
674.52937
 20
1705.6
 30
0.0
 40
57.5
  0
CIRCLE
  5
3B
102
{ACAD_REACTORS
330
15B
102
}
330
1F
100
AcDbEntity
  8
LC-001-002-----0
 62
     7
370
    50
100
AcDbCircle
 10
674.52937
 20
1705.6
 30
0.0
 40
46.0
  0
LINE
  5
3C
102
{ACAD_REACTORS
330
15B
102
}
330
1F
100
AcDbEntity
  8
LC-001-002-----0
 62
     7
370
    50
100
AcDbLine
 10
1238.62937
 20
1817.0
 30
0.0
 11
508.42937
 21
1817.0
 31
0.0
  0
LINE
  5
3D
102
{ACAD_REACTORS
330
15B
102
}
330
1F
100
AcDbEntity
  8
LC-001-002-----0
 62
     7
370
    50
100
AcDbLine
 10
1258.62937
 20
1420.2
 30
0.0
 11
1258.62937
 21
1797.0
 31
0.0
  0
LINE
  5
3E
102
{ACAD_REACTORS
330
15B
102
}
330
1F
100
AcDbEntity
  8
LC-001-002-----0
 62
     7
370
    50
100
AcDbLine
 10
508.42937
 20
1400.2
 30
0.0
 11
1238.62937
 21
1400.2
 31
0.0
  0
LINE
  5
3F
102
{ACAD_REACTORS
330
15B
102
}
330
1F
100
AcDbEntity
  8
LC-001-002-----0
 62
     7
370
    50
100
AcDbLine
 10
488.42937
 20
1797.0
 30
0.0
 11
488.42937
 21
1420.2
 31
0.0
  0
ARC
  5
40
102
{ACAD_REACTORS
330
15B
102
}
330
1F
100
AcDbEntity
  8
LC-001-002-----0
 62
     7
370
    50
100
AcDbCircle
 10
479.82937
 20
1899.6
 30
0.0
 40
25.39999999999986
100
AcDbArc
 50
90.0
 51
180.0
  0
LINE
  5
41
102
{ACAD_REACTORS
330
15B
102
}
330
1F
100
AcDbEntity
  8
LC-001-002-----0
 62
     7
370
    50
100
AcDbLine
 10
1267.22937
 20
1925.0
 30
0.0
 11
479.82937
 21
1925.0
 31
0.0
  0
ARC
  5
42
102
{ACAD_REACTORS
330
15B
102
}
330
1F
100
AcDbEntity
  8
LC-001-002-----0
 62
     7
370
    50
100
AcDbCircle
 10
1267.22937
 20
1899.6
 30
0.0
 40
25.40000000000009
100
AcDbArc
 50
0.0
 51
90.0
  0
LINE
  5
43
102
{ACAD_REACTORS
330
15B
102
}
330
1F
100
AcDbEntity
  8
LC-001-002-----0
 62
     7
370
    50
100
AcDbLine
 10
1292.62937
 20
1391.6
 30
0.0
 11
1292.62937
 21
1899.6
 31
0.0
  0
ARC
  5
44
102
{ACAD_REACTORS
330
15B
102
}
330
1F
100
AcDbEntity
  8
LC-001-002-----0
 62
     7
370
    50
100
AcDbCircle
 10
1267.22937
 20
1391.6
 30
0.0
 40
25.40000000000009
100
AcDbArc
 50
270.0
 51
0.0
  0
LINE
  5
45
102
{ACAD_REACTORS
330
15B
102
}
330
1F
100
AcDbEntity
  8
LC-001-002-----0
 62
     7
370
    50
100
AcDbLine
 10
479.82937
 20
1366.2
 30
0.0
 11
1267.22937
 21
1366.2
 31
0.0
  0
ARC
  5
46
102
{ACAD_REACTORS
330
15B
102
}
330
1F
100
AcDbEntity
  8
LC-001-002-----0
 62
     7
370
    50
100
AcDbCircle
 10
479.82937
 20
1391.6
 30
0.0
 40
25.40000000000009
100
AcDbArc
 50
180.0
 51
270.0
  0
LINE
  5
47
102
{ACAD_REACTORS
330
15B
102
}
330
1F
100
AcDbEntity
  8
LC-001-002-----0
 62
     7
370
    50
100
AcDbLine
 10
454.42937
 20
1899.6
 30
0.0
 11
454.42937
 21
1391.6
 31
0.0
  0
LINE
  5
48
102
{ACAD_REACTORS
330
15B
102
}
330
1F
100
AcDbEntity
  8
LC-001-002-----0
 62
     7
370
    50
100
AcDbLine
 10
860.62937
 20
1797.0
 30
0.0
 11
860.62937
 21
1420.2
 31
0.0
  0
LINE
  5
49
102
{ACAD_REACTORS
330
15B
102
}
330
1F
100
AcDbEntity
  8
LC-001-002-----0
 62
     7
370
    50
100
AcDbLine
 10
886.42937
 20
1797.0
 30
0.0
 11
886.42937
 21
1420.2
 31
0.0
  0
CIRCLE
  5
4A
102
{ACAD_REACTORS
330
15B
102
}
330
1F
100
AcDbEntity
  8
LC-001-002-----0
 62
     7
370
    50
100
AcDbCircle
 10
1072.52937
 20
1705.6
 30
0.0
 40
57.5
  0
CIRCLE
  5
4B
102
{ACAD_REACTORS
330
15B
102
}
330
1F
100
AcDbEntity
  8
LC-001-002-----0
 62
     7
370
    50
100
AcDbCircle
 10
1072.52937
 20
1705.6
 30
0.0
 40
46.0
  0
LINE
  5
4C
102
{ACAD_REACTORS
330
15E
102
}
330
1F
100
AcDbEntity
  8
LC-001-002-----0
 62
     7
370
    50
100
AcDbLine
 10
468.42937
 20
2312.215418
 30
0.0
 11
468.42937
 21
2313.715418
 31
0.0
  0
LINE
  5
4D
102
{ACAD_REACTORS
330
15E
102
}
330
1F
100
AcDbEntity
  8
LC-001-002-----0
 62
     7
370
    50
100
AcDbLine
 10
1278.62937
 20
2313.715418
 30
0.0
 11
1292.62937
 21
2313.715418
 31
0.0
  0
LINE
  5
4E
102
{ACAD_REACTORS
330
15E
102
}
330
1F
100
AcDbEntity
  8
LC-001-002-----0
 62
     7
370
    50
100
AcDbLine
 10
1278.62937
 20
2312.215418
 30
0.0
 11
1278.62937
 21
2313.715418
 31
0.0
  0
LINE
  5
4F
102
{ACAD_REACTORS
330
15E
102
}
330
1F
100
AcDbEntity
  8
LC-001-002-----0
 62
     7
370
    50
100
AcDbLine
 10
458.718845
 20
2321.715418
 30
0.0
 11
483.847714
 21
2321.715418
 31
0.0
  0
LINE
  5
50
102
{ACAD_REACTORS
330
15E
102
}
330
1F
100
AcDbEntity
  8
LC-001-002-----0
 62
     7
370
    50
100
AcDbLine
 10
1263.211026
 20
2321.715418
 30
0.0
 11
1288.339895
 21
2321.715418
 31
0.0
  0
LINE
  5
51
102
{ACAD_REACTORS
330
15E
102
}
330
1F
100
AcDbEntity
  8
LC-001-002-----0
 62
     7
370
    50
100
AcDbLine
 10
454.42937
 20
2313.715418
 30
0.0
 11
454.728589
 21
2317.994444
 31
0.0
  0
LINE
  5
52
102
{ACAD_REACTORS
330
15E
102
}
330
1F
100
AcDbEntity
  8
LC-001-002-----0
 62
     7
370
    50
100
AcDbLine
 10
1292.62937
 20
2313.715418
 30
0.0
 11
1292.330152
 21
2317.994444
 31
0.0
  0
LINE
  5
53
102
{ACAD_REACTORS
330
15E
102
}
330
1F
100
AcDbEntity
  8
LC-001-002-----0
 62
     7
370
    50
100
AcDbLine
 10
858.630053
 20
2299.151197
 30
0.0
 11
841.908603
 21
2108.024151
 31
0.0
  0
LINE
  5
54
102
{ACAD_REACTORS
330
15E
102
}
330
1F
100
AcDbEntity
  8
LC-001-002-----0
 62
     7
370
    50
100
AcDbLine
 10
883.447714
 20
2303.715418
 30
0.0
 11
863.611026
 21
2303.715418
 31
0.0
  0
LINE
  5
55
102
{ACAD_REACTORS
330
15E
102
}
330
1F
100
AcDbEntity
  8
LC-001-002-----0
 62
     7
370
    50
100
AcDbLine
 10
905.150138
 20
2108.024151
 30
0.0
 11
888.428688
 21
2299.151197
 31
0.0
  0
LINE
  5
56
102
{ACAD_REACTORS
330
15E
102
}
330
1F
100
AcDbEntity
  8
LC-001-002-----0
 62
     7
370
    50
100
AcDbLine
 10
488.828688
 20
2317.151197
 30
0.0
 11
507.124818
 21
2108.025478
 31
0.0
  0
LINE
  5
57
102
{ACAD_REACTORS
330
15E
102
}
330
1F
100
AcDbEntity
  8
LC-001-002-----0
 62
     7
370
    50
100
AcDbLine
 10
1258.230053
 20
2317.151197
 30
0.0
 11
1239.933923
 21
2108.025478
 31
0.0
  0
LINE
  5
58
102
{ACAD_REACTORS
330
15E
102
}
330
1F
100
AcDbEntity
  8
LC-001-002-----0
 62
     7
370
    50
100
AcDbLine
 10
629.52937
 20
2076.542184
 30
0.0
 11
719.52937
 21
2076.542184
 31
0.0
  0
LINE
  5
59
102
{ACAD_REACTORS
330
15E
102
}
330
1F
100
AcDbEntity
  8
LC-001-002-----0
 62
     7
370
    50
100
AcDbLine
 10
1027.52937
 20
2076.542184
 30
0.0
 11
1117.52937
 21
2076.542184
 31
0.0
  0
LINE
  5
5A
102
{ACAD_REACTORS
330
15E
102
}
330
1F
100
AcDbEntity
  8
LC-001-002-----0
 62
     7
370
    50
100
AcDbLine
 10
1237.767666
 20
2321.715418
 30
0.0
 11
1072.52937
 21
2321.715418
 31
0.0
  0
LINE
  5
5B
102
{ACAD_REACTORS
330
15E
102
}
330
1F
100
AcDbEntity
  8
LC-001-002-----0
 62
     7
370
    50
100
AcDbLine
 10
509.291074
 20
2321.715418
 30
0.0
 11
488.42937
 21
2321.715418
 31
0.0
  0
LINE
  5
5C
102
{ACAD_REACTORS
330
15E
102
}
330
1F
100
AcDbEntity
  8
LC-001-002-----0
 62
     7
370
    50
100
AcDbLine
 10
488.42937
 20
2321.715418
 30
0.0
 11
483.847714
 21
2321.715418
 31
0.0
  0
LINE
  5
5D
102
{ACAD_REACTORS
330
15E
102
}
330
1F
100
AcDbEntity
  8
LC-001-002-----0
 62
     7
370
    50
100
AcDbLine
 10
1263.211026
 20
2321.715418
 30
0.0
 11
1258.62937
 21
2321.715418
 31
0.0
  0
LINE
  5
5E
102
{ACAD_REACTORS
330
15E
102
}
330
1F
100
AcDbEntity
  8
LC-001-002-----0
 62
     7
370
    50
100
AcDbLine
 10
1258.62937
 20
2321.715418
 30
0.0
 11
1237.767666
 21
2321.715418
 31
0.0
  0
LINE
  5
5F
102
{ACAD_REACTORS
330
15E
102
}
330
1F
100
AcDbEntity
  8
LC-001-002-----0
 62
     7
370
    50
100
AcDbLine
 10
883.44875
 20
2303.715418
 30
0.0
 11
883.447714
 21
2303.715418
 31
0.0
  0
ARC
  5
60
102
{ACAD_REACTORS
330
15E
102
}
330
1F
100
AcDbEntity
  8
LC-001-002-----0
 62
     7
370
    50
100
AcDbCircle
 10
532.029685
 20
2110.204372
 30
0.0
 40
24.99999999999989
100
AcDbArc
 50
185.000727
 51
266.998924
  0
ARC
  5
61
102
{ACAD_REACTORS
330
15E
102
}
330
1F
100
AcDbEntity
  8
LC-001-002-----0
 62
     7
370
    50
100
AcDbCircle
 10
817.003735
 20
2110.203045
 30
0.0
 40
25.00000000000043
100
AcDbArc
 50
273.001709
 51
354.99933
  0
ARC
  5
62
102
{ACAD_REACTORS
330
15E
102
}
330
1F
100
AcDbEntity
  8
LC-001-002-----0
 62
     7
370
    50
100
AcDbCircle
 10
930.055005
 20
2110.203045
 30
0.0
 40
25.00000000000015
100
AcDbArc
 50
185.000727
 51
266.998922
  0
ARC
  5
63
102
{ACAD_REACTORS
330
15E
102
}
330
1F
100
AcDbEntity
  8
LC-001-002-----0
 62
     7
370
    50
100
AcDbCircle
 10
1215.029056
 20
2110.204372
 30
0.0
 40
25.00000000000015
100
AcDbArc
 50
273.001709
 51
354.99933
  0
LINE
  5
64
102
{ACAD_REACTORS
330
15E
102
}
330
1F
100
AcDbEntity
  8
LC-001-002-----0
 62
     7
370
    50
100
AcDbLine
 10
468.42937
 20
2312.215418
 30
0.0
 11
476.556665
 21
2312.215418
 31
0.0
  0
LINE
  5
65
102
{ACAD_REACTORS
330
15E
102
}
330
1F
100
AcDbEntity
  8
LC-001-002-----0
 62
     7
370
    50
100
AcDbLine
 10
1270.502076
 20
2312.215418
 30
0.0
 11
1278.62937
 21
2312.215418
 31
0.0
  0
LINE
  5
66
102
{ACAD_REACTORS
330
15E
102
}
330
1F
100
AcDbEntity
  8
LC-001-002-----0
 62
     7
370
    50
100
AcDbLine
 10
612.803511
 20
2066.660549
 30
0.0
 11
629.52937
 21
2066.660549
 31
0.0
  0
LINE
  5
67
102
{ACAD_REACTORS
330
15E
102
}
330
1F
100
AcDbEntity
  8
LC-001-002-----0
 62
     7
370
    50
100
AcDbLine
 10
870.766698
 20
2293.715418
 30
0.0
 11
876.292042
 21
2293.715418
 31
0.0
  0
LINE
  5
68
102
{ACAD_REACTORS
330
15E
102
}
330
1F
100
AcDbEntity
  8
LC-001-002-----0
 62
     7
370
    50
100
AcDbLine
 10
1265.421483
 20
2307.559912
 30
0.0
 11
1247.815468
 21
2106.322247
 31
0.0
  0
LINE
  5
69
102
{ACAD_REACTORS
330
15E
102
}
330
1F
100
AcDbEntity
  8
LC-001-002-----0
 62
     7
370
    50
100
AcDbLine
 10
481.637258
 20
2307.559912
 30
0.0
 11
499.243272
 21
2106.322247
 31
0.0
  0
LINE
  5
6A
102
{ACAD_REACTORS
330
15E
102
}
330
1F
100
AcDbEntity
  8
LC-001-002-----0
 62
     7
370
    50
100
AcDbLine
 10
897.268592
 20
2106.32092
 30
0.0
 11
881.273016
 21
2289.151197
 31
0.0
  0
LINE
  5
6B
102
{ACAD_REACTORS
330
15E
102
}
330
1F
100
AcDbEntity
  8
LC-001-002-----0
 62
     7
370
    50
100
AcDbLine
 10
865.785725
 20
2289.151197
 30
0.0
 11
849.790148
 21
2106.32092
 31
0.0
  0
LINE
  5
6C
102
{ACAD_REACTORS
330
15E
102
}
330
1F
100
AcDbEntity
  8
LC-001-002-----0
 62
     7
370
    50
100
AcDbLine
 10
1010.803511
 20
2066.660549
 30
0.0
 11
1134.25523
 21
2066.660549
 31
0.0
  0
ARC
  5
6D
102
{ACAD_REACTORS
330
15E
102
}
330
1F
100
AcDbEntity
  8
LC-001-002-----0
 62
     7
370
    50
100
AcDbCircle
 10
816.915723
 20
2109.19706
 30
0.0
 40
33.00000000000026
100
AcDbArc
 50
273.000707
 51
354.999511
  0
ARC
  5
6E
102
{ACAD_REACTORS
330
15E
102
}
330
1F
100
AcDbEntity
  8
LC-001-002-----0
 62
     7
370
    50
100
AcDbCircle
 10
532.117697
 20
2109.198387
 30
0.0
 40
33.00000000000017
100
AcDbArc
 50
185.000506
 51
266.998544
  0
ARC
  5
6F
102
{ACAD_REACTORS
330
15E
102
}
330
1F
100
AcDbEntity
  8
LC-001-002-----0
 62
     7
370
    50
100
AcDbCircle
 10
930.143017
 20
2109.19706
 30
0.0
 40
32.99999999999985
100
AcDbArc
 50
185.000453
 51
266.999263
  0
ARC
  5
70
102
{ACAD_REACTORS
330
15E
102
}
330
1F
100
AcDbEntity
  8
LC-001-002-----0
 62
     7
370
    50
100
AcDbCircle
 10
1214.941043
 20
2109.198387
 30
0.0
 40
32.99999999999995
100
AcDbArc
 50
273.001455
 51
354.999531
  0
ARC
  5
71
102
{ACAD_REACTORS
330
15E
102
}
330
1F
100
AcDbEntity
  8
LC-001-002-----0
 62
     7
370
    50
100
AcDbCircle
 10
743.991653
 20
2066.32175
 30
0.0
 40
5.999999999999874
100
AcDbArc
 50
93.0
 51
99.2
  0
ARC
  5
72
102
{ACAD_REACTORS
330
15E
102
}
330
1F
100
AcDbEntity
  8
LC-001-002-----0
 62
     7
370
    50
100
AcDbCircle
 10
743.991653
 20
2066.32175
 30
0.0
 40
6.00000000000029
100
AcDbArc
 50
99.2
 51
102.520976
  0
ARC
  5
73
102
{ACAD_REACTORS
330
15E
102
}
330
1F
100
AcDbEntity
  8
LC-001-002-----0
 62
     7
370
    50
100
AcDbCircle
 10
743.991653
 20
2066.32175
 30
0.0
 40
6.00000000000033
100
AcDbArc
 50
102.520976
 51
105.4
  0
ARC
  5
74
102
{ACAD_REACTORS
330
15E
102
}
330
1F
100
AcDbEntity
  8
LC-001-002-----0
 62
     7
370
    50
100
AcDbCircle
 10
743.991653
 20
2066.32175
 30
0.0
 40
6.000000000000225
100
AcDbArc
 50
105.4
 51
108.757703
  0
ARC
  5
75
102
{ACAD_REACTORS
330
15E
102
}
330
1F
100
AcDbEntity
  8
LC-001-002-----0
 62
     7
370
    50
100
AcDbCircle
 10
743.991653
 20
2066.32175
 30
0.0
 40
6.000000000000239
100
AcDbArc
 50
108.757703
 51
111.6
  0
ARC
  5
76
102
{ACAD_REACTORS
330
15E
102
}
330
1F
100
AcDbEntity
  8
LC-001-002-----0
 62
     7
370
    50
100
AcDbCircle
 10
743.991653
 20
2066.32175
 30
0.0
 40
6.000000000000089
100
AcDbArc
 50
111.6
 51
115.009116
  0
ARC
  5
77
102
{ACAD_REACTORS
330
15E
102
}
330
1F
100
AcDbEntity
  8
LC-001-002-----0
 62
     7
370
    50
100
AcDbCircle
 10
743.991653
 20
2066.32175
 30
0.0
 40
6.000000000000333
100
AcDbArc
 50
115.009116
 51
117.8
  0
ARC
  5
78
102
{ACAD_REACTORS
330
15E
102
}
330
1F
100
AcDbEntity
  8
LC-001-002-----0
 62
     7
370
    50
100
AcDbCircle
 10
743.991653
 20
2066.32175
 30
0.0
 40
5.999999999999843
100
AcDbArc
 50
117.8
 51
121.286415
  0
ARC
  5
79
102
{ACAD_REACTORS
330
15E
102
}
330
1F
100
AcDbEntity
  8
LC-001-002-----0
 62
     7
370
    50
100
AcDbCircle
 10
743.991653
 20
2066.32175
 30
0.0
 40
6.000000000000004
100
AcDbArc
 50
121.286415
 51
124.0
  0
ARC
  5
7A
102
{ACAD_REACTORS
330
15E
102
}
330
1F
100
AcDbEntity
  8
LC-001-002-----0
 62
     7
370
    50
100
AcDbCircle
 10
743.991653
 20
2066.32175
 30
0.0
 40
6.0000000000001
100
AcDbArc
 50
124.0
 51
155.0
  0
ARC
  5
7B
102
{ACAD_REACTORS
330
15E
102
}
330
1F
100
AcDbEntity
  8
LC-001-002-----0
 62
     7
370
    50
100
AcDbCircle
 10
1134.25523
 20
2068.660549
 30
0.0
 40
2.0
100
AcDbArc
 50
270.0
 51
335.0
  0
ARC
  5
7C
102
{ACAD_REACTORS
330
15E
102
}
330
1F
100
AcDbEntity
  8
LC-001-002-----0
 62
     7
370
    50
100
AcDbCircle
 10
736.25523
 20
2068.660549
 30
0.0
 40
2.0
100
AcDbArc
 50
270.0
 51
335.0
  0
LINE
  5
7D
102
{ACAD_REACTORS
330
15E
102
}
330
1F
100
AcDbEntity
  8
LC-001-002-----0
 62
     7
370
    50
100
AcDbLine
 10
1136.067845
 20
2067.815313
 30
0.0
 11
1136.553806
 21
2068.857459
 31
0.0
  0
LINE
  5
7E
102
{ACAD_REACTORS
330
15E
102
}
330
1F
100
AcDbEntity
  8
LC-001-002-----0
 62
     7
370
    50
100
AcDbLine
 10
738.067845
 20
2067.815313
 30
0.0
 11
738.553806
 21
2068.857459
 31
0.0
  0
LINE
  5
7F
102
{ACAD_REACTORS
330
15E
102
}
330
1F
100
AcDbEntity
  8
LC-001-002-----0
 62
     7
370
    50
100
AcDbLine
 10
629.52937
 20
2066.660549
 30
0.0
 11
719.52937
 21
2066.660549
 31
0.0
  0
LINE
  5
80
102
{ACAD_REACTORS
330
15E
102
}
330
1F
100
AcDbEntity
  8
LC-001-002-----0
 62
     7
370
    50
100
AcDbLine
 10
509.291074
 20
2321.715418
 30
0.0
 11
483.847714
 21
2321.715418
 31
0.0
  0
LINE
  5
81
102
{ACAD_REACTORS
330
15E
102
}
330
1F
100
AcDbEntity
  8
LC-001-002-----0
 62
     7
370
    50
100
AcDbLine
 10
1131.071085
 20
2080.770012
 30
0.0
 11
1216.337454
 21
2085.238633
 31
0.0
  0
ARC
  5
82
102
{ACAD_REACTORS
330
15E
102
}
330
1F
100
AcDbEntity
  8
LC-001-002-----0
 62
     7
370
    50
100
AcDbCircle
 10
1131.133888
 20
2079.571657
 30
0.0
 40
1.200000000000001
100
AcDbArc
 50
93.0
 51
175.0
  0
LINE
  5
83
102
{ACAD_REACTORS
330
15E
102
}
330
1F
100
AcDbEntity
  8
LC-001-002-----0
 62
     7
370
    25
100
AcDbLine
 10
1015.02937
 20
2080.715418
 30
0.0
 11
1130.02937
 21
2080.715418
 31
0.0
  0
LINE
  5
84
102
{ACAD_REACTORS
330
15E
102
}
330
1F
100
AcDbEntity
  8
LC-001-002-----0
 62
     7
370
    50
100
AcDbLine
 10
1027.52937
 20
2076.542184
 30
0.0
 11
1015.960017
 21
2078.582173
 31
0.0
  0
LINE
  5
85
102
{ACAD_REACTORS
330
15E
102
}
330
1F
100
AcDbEntity
  8
LC-001-002-----0
 62
     7
370
    50
100
AcDbLine
 10
1015.137471
 20
2079.479825
 30
0.0
 11
1015.120286
 21
2079.676243
 31
0.0
  0
ARC
  5
86
102
{ACAD_REACTORS
330
15E
102
}
330
1F
100
AcDbEntity
  8
LC-001-002-----0
 62
     7
370
    50
100
AcDbCircle
 10
1013.924853
 20
2079.571657
 30
0.0
 40
1.199999999999819
100
AcDbArc
 50
5.0
 51
87.0
  0
LINE
  5
87
102
{ACAD_REACTORS
330
15E
102
}
330
1F
100
AcDbEntity
  8
LC-001-002-----0
 62
     7
370
    50
100
AcDbLine
 10
1013.987656
 20
2080.770012
 30
0.0
 11
928.746606
 21
2085.237306
 31
0.0
  0
ARC
  5
88
102
{ACAD_REACTORS
330
15E
102
}
330
1F
100
AcDbEntity
  8
LC-001-002-----0
 62
     7
370
    50
100
AcDbCircle
 10
883.447714
 20
2298.715418
 30
0.0
 40
5.000000000000107
100
AcDbArc
 50
5.0
 51
90.0
  0
ARC
  5
89
102
{ACAD_REACTORS
330
15E
102
}
330
1F
100
AcDbEntity
  8
LC-001-002-----0
 62
     7
370
    50
100
AcDbCircle
 10
863.611026
 20
2298.715418
 30
0.0
 40
5.0
100
AcDbArc
 50
90.0
 51
175.0
  0
LINE
  5
8A
102
{ACAD_REACTORS
330
15E
102
}
330
1F
100
AcDbEntity
  8
LC-001-002-----0
 62
     7
370
    50
100
AcDbLine
 10
733.071085
 20
2080.770012
 30
0.0
 11
818.312134
 21
2085.237306
 31
0.0
  0
LINE
  5
8B
102
{ACAD_REACTORS
330
15E
102
}
330
1F
100
AcDbEntity
  8
LC-001-002-----0
 62
     7
370
    50
100
AcDbLine
 10
629.52937
 20
2076.542184
 30
0.0
 11
617.960017
 21
2078.582173
 31
0.0
  0
LINE
  5
8C
102
{ACAD_REACTORS
330
15E
102
}
330
1F
100
AcDbEntity
  8
LC-001-002-----0
 62
     7
370
    50
100
AcDbLine
 10
617.137471
 20
2079.479825
 30
0.0
 11
617.120286
 21
2079.676243
 31
0.0
  0
ARC
  5
8D
102
{ACAD_REACTORS
330
15E
102
}
330
1F
100
AcDbEntity
  8
LC-001-002-----0
 62
     7
370
    50
100
AcDbCircle
 10
615.924853
 20
2079.571657
 30
0.0
 40
1.199999999999819
100
AcDbArc
 50
5.0
 51
87.0
  0
LINE
  5
8E
102
{ACAD_REACTORS
330
15E
102
}
330
1F
100
AcDbEntity
  8
LC-001-002-----0
 62
     7
370
    50
100
AcDbLine
 10
615.987656
 20
2080.770012
 30
0.0
 11
530.721286
 21
2085.238633
 31
0.0
  0
ARC
  5
8F
102
{ACAD_REACTORS
330
15E
102
}
330
1F
100
AcDbEntity
  8
LC-001-002-----0
 62
     7
370
    50
100
AcDbCircle
 10
483.847714
 20
2316.715418
 30
0.0
 40
5.000000000000107
100
AcDbArc
 50
5.0
 51
90.0
  0
ARC
  5
90
102
{ACAD_REACTORS
330
15E
102
}
330
1F
100
AcDbEntity
  8
LC-001-002-----0
 62
     7
370
    50
100
AcDbCircle
 10
458.718845
 20
2317.715418
 30
0.0
 40
4.0
100
AcDbArc
 50
90.0
 51
176.0
  0
ARC
  5
91
102
{ACAD_REACTORS
330
15E
102
}
330
1F
100
AcDbEntity
  8
LC-001-002-----0
 62
     7
370
    50
100
AcDbCircle
 10
476.556665
 20
2307.115418
 30
0.0
 40
5.100000000000057
100
AcDbArc
 50
5.0
 51
90.0
  0
LINE
  5
92
102
{ACAD_REACTORS
330
15E
102
}
330
1F
100
AcDbEntity
  8
LC-001-002-----0
 62
     7
370
    50
100
AcDbLine
 10
605.381103
 20
2072.313527
 30
0.0
 11
530.390611
 21
2076.243612
 31
0.0
  0
ARC
  5
93
102
{ACAD_REACTORS
330
15E
102
}
330
1F
100
AcDbEntity
  8
LC-001-002-----0
 62
     7
370
    50
100
AcDbCircle
 10
605.067088
 20
2066.32175
 30
0.0
 40
6.000000000000177
100
AcDbArc
 50
25.0
 51
87.0
  0
LINE
  5
94
102
{ACAD_REACTORS
330
15E
102
}
330
1F
100
AcDbEntity
  8
LC-001-002-----0
 62
     7
370
    50
100
AcDbLine
 10
610.990895
 20
2067.815313
 30
0.0
 11
610.504934
 21
2068.857459
 31
0.0
  0
ARC
  5
95
102
{ACAD_REACTORS
330
15E
102
}
330
1F
100
AcDbEntity
  8
LC-001-002-----0
 62
     7
370
    50
100
AcDbCircle
 10
612.803511
 20
2068.660549
 30
0.0
 40
1.999999999999703
100
AcDbArc
 50
205.0
 51
270.0
  0
ARC
  5
96
102
{ACAD_REACTORS
330
15E
102
}
330
1F
100
AcDbEntity
  8
LC-001-002-----0
 62
     7
370
    50
100
AcDbCircle
 10
736.25523
 20
2068.660549
 30
0.0
 40
2.0
100
AcDbArc
 50
270.0
 51
335.0
  0
LINE
  5
97
102
{ACAD_REACTORS
330
15E
102
}
330
1F
100
AcDbEntity
  8
LC-001-002-----0
 62
     7
370
    50
100
AcDbLine
 10
738.067845
 20
2067.815313
 30
0.0
 11
738.553806
 21
2068.857459
 31
0.0
  0
ARC
  5
98
102
{ACAD_REACTORS
330
15E
102
}
330
1F
100
AcDbEntity
  8
LC-001-002-----0
 62
     7
370
    50
100
AcDbCircle
 10
743.991653
 20
2066.32175
 30
0.0
 40
5.999999999999874
100
AcDbArc
 50
93.0
 51
99.2
  0
ARC
  5
99
102
{ACAD_REACTORS
330
15E
102
}
330
1F
100
AcDbEntity
  8
LC-001-002-----0
 62
     7
370
    50
100
AcDbCircle
 10
743.991653
 20
2066.32175
 30
0.0
 40
6.000000000000081
100
AcDbArc
 50
99.2
 51
102.521191
  0
ARC
  5
9A
102
{ACAD_REACTORS
330
15E
102
}
330
1F
100
AcDbEntity
  8
LC-001-002-----0
 62
     7
370
    50
100
AcDbCircle
 10
743.991653
 20
2066.32175
 30
0.0
 40
6.00000000000009
100
AcDbArc
 50
102.521191
 51
105.4
  0
ARC
  5
9B
102
{ACAD_REACTORS
330
15E
102
}
330
1F
100
AcDbEntity
  8
LC-001-002-----0
 62
     7
370
    50
100
AcDbCircle
 10
743.991653
 20
2066.32175
 30
0.0
 40
5.999999999999999
100
AcDbArc
 50
105.4
 51
108.757953
  0
ARC
  5
9C
102
{ACAD_REACTORS
330
15E
102
}
330
1F
100
AcDbEntity
  8
LC-001-002-----0
 62
     7
370
    50
100
AcDbCircle
 10
743.991653
 20
2066.32175
 30
0.0
 40
6.00000000000031
100
AcDbArc
 50
108.757953
 51
111.6
  0
ARC
  5
9D
102
{ACAD_REACTORS
330
15E
102
}
330
1F
100
AcDbEntity
  8
LC-001-002-----0
 62
     7
370
    50
100
AcDbCircle
 10
743.991653
 20
2066.32175
 30
0.0
 40
6.000000000000235
100
AcDbArc
 50
111.6
 51
115.009415
  0
ARC
  5
9E
102
{ACAD_REACTORS
330
15E
102
}
330
1F
100
AcDbEntity
  8
LC-001-002-----0
 62
     7
370
    50
100
AcDbCircle
 10
743.991653
 20
2066.32175
 30
0.0
 40
6.000000000000106
100
AcDbArc
 50
115.009415
 51
117.8
  0
ARC
  5
9F
102
{ACAD_REACTORS
330
15E
102
}
330
1F
100
AcDbEntity
  8
LC-001-002-----0
 62
     7
370
    50
100
AcDbCircle
 10
743.991653
 20
2066.32175
 30
0.0
 40
6.00000000000018
100
AcDbArc
 50
117.8
 51
121.286786
  0
ARC
  5
A0
102
{ACAD_REACTORS
330
15E
102
}
330
1F
100
AcDbEntity
  8
LC-001-002-----0
 62
     7
370
    50
100
AcDbCircle
 10
743.991653
 20
2066.32175
 30
0.0
 40
6.00000000000006
100
AcDbArc
 50
121.286786
 51
124.0
  0
ARC
  5
A1
102
{ACAD_REACTORS
330
15E
102
}
330
1F
100
AcDbEntity
  8
LC-001-002-----0
 62
     7
370
    50
100
AcDbCircle
 10
743.991653
 20
2066.32175
 30
0.0
 40
6.000000000000308
100
AcDbArc
 50
124.0
 51
155.0
  0
LINE
  5
A2
102
{ACAD_REACTORS
330
15E
102
}
330
1F
100
AcDbEntity
  8
LC-001-002-----0
 62
     7
370
    50
100
AcDbLine
 10
743.677637
 20
2072.313527
 30
0.0
 11
818.64281
 21
2076.242285
 31
0.0
  0
ARC
  5
A3
102
{ACAD_REACTORS
330
15E
102
}
330
1F
100
AcDbEntity
  8
LC-001-002-----0
 62
     7
370
    50
100
AcDbCircle
 10
870.766698
 20
2288.715418
 30
0.0
 40
5.0
100
AcDbArc
 50
90.0
 51
175.0
  0
ARC
  5
A4
102
{ACAD_REACTORS
330
15E
102
}
330
1F
100
AcDbEntity
  8
LC-001-002-----0
 62
     7
370
    50
100
AcDbCircle
 10
876.292042
 20
2288.715418
 30
0.0
 40
5.000000000000107
100
AcDbArc
 50
5.0
 51
90.0
  0
LINE
  5
A5
102
{ACAD_REACTORS
330
15E
102
}
330
1F
100
AcDbEntity
  8
LC-001-002-----0
 62
     7
370
    50
100
AcDbLine
 10
1003.381103
 20
2072.313527
 30
0.0
 11
928.415931
 21
2076.242285
 31
0.0
  0
ARC
  5
A6
102
{ACAD_REACTORS
330
15E
102
}
330
1F
100
AcDbEntity
  8
LC-001-002-----0
 62
     7
370
    50
100
AcDbCircle
 10
1003.067088
 20
2066.32175
 30
0.0
 40
6.000000000000177
100
AcDbArc
 50
25.0
 51
87.0
  0
LINE
  5
A7
102
{ACAD_REACTORS
330
15E
102
}
330
1F
100
AcDbEntity
  8
LC-001-002-----0
 62
     7
370
    50
100
AcDbLine
 10
1008.990895
 20
2067.815313
 30
0.0
 11
1008.504934
 21
2068.857459
 31
0.0
  0
ARC
  5
A8
102
{ACAD_REACTORS
330
15E
102
}
330
1F
100
AcDbEntity
  8
LC-001-002-----0
 62
     7
370
    50
100
AcDbCircle
 10
1010.803511
 20
2068.660549
 30
0.0
 40
1.999999999999703
100
AcDbArc
 50
205.0
 51
270.0
  0
ARC
  5
A9
102
{ACAD_REACTORS
330
15E
102
}
330
1F
100
AcDbEntity
  8
LC-001-002-----0
 62
     7
370
    50
100
AcDbCircle
 10
1134.25523
 20
2068.660549
 30
0.0
 40
2.0
100
AcDbArc
 50
270.0
 51
335.0
  0
LINE
  5
AA
102
{ACAD_REACTORS
330
15E
102
}
330
1F
100
AcDbEntity
  8
LC-001-002-----0
 62
     7
370
    50
100
AcDbLine
 10
1136.067845
 20
2067.815313
 30
0.0
 11
1136.553806
 21
2068.857459
 31
0.0
  0
ARC
  5
AB
102
{ACAD_REACTORS
330
15E
102
}
330
1F
100
AcDbEntity
  8
LC-001-002-----0
 62
     7
370
    50
100
AcDbCircle
 10
1141.991653
 20
2066.32175
 30
0.0
 40
5.999999999999874
100
AcDbArc
 50
93.0
 51
155.0
  0
LINE
  5
AC
102
{ACAD_REACTORS
330
15E
102
}
330
1F
100
AcDbEntity
  8
LC-001-002-----0
 62
     7
370
    50
100
AcDbLine
 10
1141.677637
 20
2072.313527
 30
0.0
 11
1216.66813
 21
2076.243612
 31
0.0
  0
ARC
  5
AD
102
{ACAD_REACTORS
330
15E
102
}
330
1F
100
AcDbEntity
  8
LC-001-002-----0
 62
     7
370
    50
100
AcDbCircle
 10
1270.502076
 20
2307.115418
 30
0.0
 40
5.099999999999909
100
AcDbArc
 50
90.0
 51
175.0
  0
ARC
  5
AE
102
{ACAD_REACTORS
330
15E
102
}
330
1F
100
AcDbEntity
  8
LC-001-002-----0
 62
     7
370
    50
100
AcDbCircle
 10
1288.339895
 20
2317.715418
 30
0.0
 40
4.000000000000019
100
AcDbArc
 50
4.0
 51
90.0
  0
ARC
  5
AF
102
{ACAD_REACTORS
330
15E
102
}
330
1F
100
AcDbEntity
  8
LC-001-002-----0
 62
     7
370
    50
100
AcDbCircle
 10
1263.211026
 20
2316.715418
 30
0.0
 40
5.0
100
AcDbArc
 50
90.0
 51
175.0
  0
ARC
  5
B0
102
{ACAD_REACTORS
330
15E
102
}
330
1F
100
AcDbEntity
  8
LC-001-002-----0
 62
     7
370
    50
100
AcDbCircle
 10
733.133888
 20
2079.571657
 30
0.0
 40
1.200000000000001
100
AcDbArc
 50
93.0
 51
175.0
  0
LINE
  5
B1
102
{ACAD_REACTORS
330
15E
102
}
330
1F
100
AcDbEntity
  8
LC-001-002-----0
 62
     7
370
    50
100
AcDbLine
 10
731.92127
 20
2079.479825
 30
0.0
 11
731.938454
 21
2079.676243
 31
0.0
  0
ARC
  5
B2
102
{ACAD_REACTORS
330
15E
102
}
330
1F
100
AcDbEntity
  8
LC-001-002-----0
 62
     7
370
    50
100
AcDbCircle
 10
730.925075
 20
2079.566981
 30
0.0
 40
1.000000000000236
100
AcDbArc
 50
280.0
 51
355.0
  0
LINE
  5
B3
102
{ACAD_REACTORS
330
15E
102
}
330
1F
100
AcDbEntity
  8
LC-001-002-----0
 62
     7
370
    50
100
AcDbLine
 10
719.52937
 20
2076.542184
 30
0.0
 11
731.098723
 21
2078.582173
 31
0.0
  0
ARC
  5
B4
102
{ACAD_REACTORS
330
15E
102
}
330
1F
100
AcDbEntity
  8
LC-001-002-----0
 62
     7
370
    50
100
AcDbCircle
 10
618.133665
 20
2079.566981
 30
0.0
 40
0.9999999999997913
100
AcDbArc
 50
185.0
 51
260.0
  0
LINE
  5
B5
102
{ACAD_REACTORS
330
15E
102
}
330
1F
100
AcDbEntity
  8
LC-001-002-----0
 62
     7
370
    50
100
AcDbLine
 10
719.52937
 20
2066.660549
 30
0.0
 11
719.52937
 21
2076.542184
 31
0.0
  0
ARC
  5
B6
102
{ACAD_REACTORS
330
15E
102
}
330
1F
100
AcDbEntity
  8
LC-001-002-----0
 62
     7
370
    50
100
AcDbCircle
 10
1016.133665
 20
2079.566981
 30
0.0
 40
1.000000000000086
100
AcDbArc
 50
185.0
 51
260.0
  0
LINE
  5
B7
102
{ACAD_REACTORS
330
15E
102
}
330
1F
100
AcDbEntity
  8
LC-001-002-----0
 62
     7
370
    50
100
AcDbLine
 10
1129.92127
 20
2079.479825
 30
0.0
 11
1129.938454
 21
2079.676243
 31
0.0
  0
ARC
  5
B8
102
{ACAD_REACTORS
330
15E
102
}
330
1F
100
AcDbEntity
  8
LC-001-002-----0
 62
     7
370
    50
100
AcDbCircle
 10
1128.925075
 20
2079.566981
 30
0.0
 40
1.000000000000236
100
AcDbArc
 50
280.0
 51
355.0
  0
LINE
  5
B9
102
{ACAD_REACTORS
330
15E
102
}
330
1F
100
AcDbEntity
  8
LC-001-002-----0
 62
     7
370
    50
100
AcDbLine
 10
1117.52937
 20
2076.542184
 30
0.0
 11
1129.098723
 21
2078.582173
 31
0.0
  0
LINE
  5
BA
102
{ACAD_REACTORS
330
15E
102
}
330
1F
100
AcDbEntity
  8
LC-001-002-----0
 62
     7
370
    50
100
AcDbLine
 10
1258.62937
 20
2321.715418
 30
0.0
 11
1252.433741
 21
2321.715418
 31
0.0
  0
LINE
  5
BB
102
{ACAD_REACTORS
330
15E
102
}
330
1F
100
AcDbEntity
  8
LC-001-002-----0
 62
     7
370
    50
100
AcDbLine
 10
1252.433741
 20
2321.715418
 30
0.0
 11
494.624999
 21
2321.715418
 31
0.0
  0
LINE
  5
BC
102
{ACAD_REACTORS
330
15E
102
}
330
1F
100
AcDbEntity
  8
LC-001-002-----0
 62
     7
370
    50
100
AcDbLine
 10
494.624999
 20
2321.715418
 30
0.0
 11
488.42937
 21
2321.715418
 31
0.0
  0
LINE
  5
BD
102
{ACAD_REACTORS
330
15E
102
}
330
1F
100
AcDbEntity
  8
LC-001-002-----0
 62
     7
370
    50
100
AcDbLine
 10
454.42937
 20
2313.715418
 30
0.0
 11
468.42937
 21
2313.715418
 31
0.0
  0
LINE
  5
BE
102
{ACAD_REACTORS
330
15E
102
}
330
1F
100
AcDbEntity
  8
LC-001-002-----0
 62
     7
370
    50
100
AcDbLine
 10
629.52937
 20
2066.660549
 30
0.0
 11
629.52937
 21
2076.542184
 31
0.0
  0
LINE
  5
BF
102
{ACAD_REACTORS
330
15E
102
}
330
1F
100
AcDbEntity
  8
LC-001-002-----0
 62
     7
370
    50
100
AcDbLine
 10
1117.52937
 20
2066.660549
 30
0.0
 11
1117.52937
 21
2076.542184
 31
0.0
  0
LINE
  5
C0
102
{ACAD_REACTORS
330
15E
102
}
330
1F
100
AcDbEntity
  8
LC-001-002-----0
 62
     7
370
    50
100
AcDbLine
 10
1027.52937
 20
2066.660549
 30
0.0
 11
1027.52937
 21
2076.542184
 31
0.0
  0
LINE
  5
C1
102
{ACAD_REACTORS
330
15E
102
}
330
1F
100
AcDbEntity
  8
LC-001-002-----0
 62
     7
370
    25
100
AcDbLine
 10
617.02937
 20
2080.715418
 30
0.0
 11
732.02937
 21
2080.715418
 31
0.0
  0
LINE
  5
C2
102
{ACAD_REACTORS
330
15E
102
}
330
1F
100
AcDbEntity
  8
LC-001-002-----0
 62
     7
370
    50
100
AcDbLine
 10
674.52937
 20
2321.715418
 30
0.0
 11
509.291074
 21
2321.715418
 31
0.0
  0
LINE
  5
C3
102
{ACAD_REACTORS
330
15E
102
}
330
1F
100
AcDbEntity
  8
LC-001-002-----0
 62
     7
370
    50
100
AcDbLine
 10
719.52937
 20
2066.660549
 30
0.0
 11
736.25523
 21
2066.660549
 31
0.0
  0
CIRCLE
  5
C4
102
{ACAD_REACTORS
330
15B
102
}
330
1F
100
AcDbEntity
  8
LC-001-002-----0
  6
DASHED
 62
     7
370
    25
100
AcDbCircle
 10
975.12937
 20
1870.0
 30
0.0
 40
17.5
  0
CIRCLE
  5
C5
102
{ACAD_REACTORS
330
15B
102
}
330
1F
100
AcDbEntity
  8
LC-001-002-----0
  6
DASHED
 62
     7
370
    25
100
AcDbCircle
 10
1076.72937
 20
1870.0
 30
0.0
 40
17.5
  0
CIRCLE
  5
C6
102
{ACAD_REACTORS
330
15B
102
}
330
1F
100
AcDbEntity
  8
LC-001-002-----0
  6
DASHED
 62
     7
370
    25
100
AcDbCircle
 10
771.92937
 20
1870.0
 30
0.0
 40
17.5
  0
INSERT
  5
E3
330
1F
100
AcDbEntity
  8
LC-004-003-----0
 62
     7
370
    25
100
AcDbBlockReference
  2
LCDIM1
 10
0.0
 20
0.0
 30
0.0
  0
INSERT
  5
FD
330
1F
100
AcDbEntity
  8
LC-004-003-----0
 62
     7
370
    25
100
AcDbBlockReference
  2
LCDIM2
 10
0.0
 20
0.0
 30
0.0
  0
INSERT
  5
117
330
1F
100
AcDbEntity
  8
LC-004-003-----0
 62
     7
370
    25
100
AcDbBlockReference
  2
LCDIM3
 10
0.0
 20
0.0
 30
0.0
  0
LINE
  5
118
102
{ACAD_REACTORS
330
15A
102
}
330
1F
100
AcDbEntity
  8
LC-002-003-MTH-0
 62
     7
370
    25
100
AcDbLine
 10
488.42937
 20
1420.2
 30
0.0
 11
488.42937
 21
1285.0
 31
0.0
  0
LINE
  5
119
102
{ACAD_REACTORS
330
15A
102
}
330
1F
100
AcDbEntity
  8
LC-002-003-MTH-0
 62
     7
370
    25
100
AcDbLine
 10
860.62937
 20
1420.2
 30
0.0
 11
860.62937
 21
1285.0
 31
0.0
  0
LINE
  5
11A
102
{ACAD_REACTORS
330
15A
102
}
330
1F
100
AcDbEntity
  8
LC-003-003-MTG-0
 62
     7
370
    25
100
AcDbLine
 10
488.42937
 20
1300.0
 30
0.0
 11
860.62937
 21
1300.0
 31
0.0
  0
LINE
  5
11B
102
{ACAD_REACTORS
330
15A
102
}
330
1F
100
AcDbEntity
  8
LC-004-003-----0
 62
     7
370
    25
100
AcDbLine
 10
513.215492
 20
1303.263155
 30
0.0
 11
488.42937
 21
1300.0
 31
0.0
  0
LINE
  5
11C
102
{ACAD_REACTORS
330
15A
102
}
330
1F
100
AcDbEntity
  8
LC-004-003-----0
 62
     7
370
    25
100
AcDbLine
 10
488.42937
 20
1300.0
 30
0.0
 11
513.215492
 21
1296.736845
 31
0.0
  0
LINE
  5
11D
102
{ACAD_REACTORS
330
15A
102
}
330
1F
100
AcDbEntity
  8
LC-004-003-----0
 62
     7
370
    25
100
AcDbLine
 10
513.215492
 20
1296.736845
 30
0.0
 11
513.215492
 21
1303.263155
 31
0.0
  0
LINE
  5
11E
102
{ACAD_REACTORS
330
15A
102
}
330
1F
100
AcDbEntity
  8
LC-004-003-----0
 62
     7
370
    25
100
AcDbLine
 10
513.271101
 20
1302.414735
 30
0.0
 11
494.92937
 21
1300.0
 31
0.0
  0
LINE
  5
11F
102
{ACAD_REACTORS
330
15A
102
}
330
1F
100
AcDbEntity
  8
LC-004-003-----0
 62
     7
370
    25
100
AcDbLine
 10
494.92937
 20
1300.0
 30
0.0
 11
513.271101
 21
1297.585265
 31
0.0
  0
LINE
  5
120
102
{ACAD_REACTORS
330
15A
102
}
330
1F
100
AcDbEntity
  8
LC-004-003-----0
 62
     7
370
    25
100
AcDbLine
 10
513.326709
 20
1301.566314
 30
0.0
 11
501.42937
 21
1300.0
 31
0.0
  0
LINE
  5
121
102
{ACAD_REACTORS
330
15A
102
}
330
1F
100
AcDbEntity
  8
LC-004-003-----0
 62
     7
370
    25
100
AcDbLine
 10
501.42937
 20
1300.0
 30
0.0
 11
513.326709
 21
1298.433686
 31
0.0
  0
LINE
  5
122
102
{ACAD_REACTORS
330
15A
102
}
330
1F
100
AcDbEntity
  8
LC-004-003-----0
 62
     7
370
    25
100
AcDbLine
 10
513.382317
 20
1300.717894
 30
0.0
 11
507.929371
 21
1300.0
 31
0.0
  0
LINE
  5
123
102
{ACAD_REACTORS
330
15A
102
}
330
1F
100
AcDbEntity
  8
LC-004-003-----0
 62
     7
370
    25
100
AcDbLine
 10
507.929371
 20
1300.0
 30
0.0
 11
513.382317
 21
1299.282106
 31
0.0
  0
LINE
  5
124
102
{ACAD_REACTORS
330
15A
102
}
330
1F
100
AcDbEntity
  8
LC-004-003-----0
 62
     7
370
    25
100
AcDbLine
 10
835.843248
 20
1296.736845
 30
0.0
 11
860.62937
 21
1300.0
 31
0.0
  0
LINE
  5
125
102
{ACAD_REACTORS
330
15A
102
}
330
1F
100
AcDbEntity
  8
LC-004-003-----0
 62
     7
370
    25
100
AcDbLine
 10
860.62937
 20
1300.0
 30
0.0
 11
835.843248
 21
1303.263155
 31
0.0
  0
LINE
  5
126
102
{ACAD_REACTORS
330
15A
102
}
330
1F
100
AcDbEntity
  8
LC-004-003-----0
 62
     7
370
    25
100
AcDbLine
 10
835.843248
 20
1303.263155
 30
0.0
 11
835.843248
 21
1296.736845
 31
0.0
  0
LINE
  5
127
102
{ACAD_REACTORS
330
15A
102
}
330
1F
100
AcDbEntity
  8
LC-004-003-----0
 62
     7
370
    25
100
AcDbLine
 10
835.78764
 20
1297.585265
 30
0.0
 11
854.12937
 21
1300.0
 31
0.0
  0
LINE
  5
128
102
{ACAD_REACTORS
330
15A
102
}
330
1F
100
AcDbEntity
  8
LC-004-003-----0
 62
     7
370
    25
100
AcDbLine
 10
854.12937
 20
1300.0
 30
0.0
 11
835.78764
 21
1302.414735
 31
0.0
  0
LINE
  5
129
102
{ACAD_REACTORS
330
15A
102
}
330
1F
100
AcDbEntity
  8
LC-004-003-----0
 62
     7
370
    25
100
AcDbLine
 10
835.732032
 20
1298.433686
 30
0.0
 11
847.62937
 21
1300.0
 31
0.0
  0
LINE
  5
12A
102
{ACAD_REACTORS
330
15A
102
}
330
1F
100
AcDbEntity
  8
LC-004-003-----0
 62
     7
370
    25
100
AcDbLine
 10
847.62937
 20
1300.0
 30
0.0
 11
835.732032
 21
1301.566314
 31
0.0
  0
LINE
  5
12B
102
{ACAD_REACTORS
330
15A
102
}
330
1F
100
AcDbEntity
  8
LC-004-003-----0
 62
     7
370
    25
100
AcDbLine
 10
835.676423
 20
1299.282106
 30
0.0
 11
841.12937
 21
1300.0
 31
0.0
  0
LINE
  5
12C
102
{ACAD_REACTORS
330
15A
102
}
330
1F
100
AcDbEntity
  8
LC-004-003-----0
 62
     7
370
    25
100
AcDbLine
 10
841.12937
 20
1300.0
 30
0.0
 11
835.676423
 21
1300.717894
 31
0.0
  0
TEXT
  5
12D
102
{ACAD_REACTORS
330
15A
102
}
330
1F
100
AcDbEntity
  8
LC-004-003-----0
 62
     7
370
    25
100
AcDbText
 10
561.453757
 20
1315.0
 30
0.0
 40
25.0
  1
370 (14.57")
 41
0.7
  7
LCTX0-400-0-0pDIN-Schrift
 72
     1
 11
650.620424
 21
1315.0
 31
0.0
100
AcDbText
  0
LINE
  5
12E
102
{ACAD_REACTORS
330
15D
102
}
330
1F
100
AcDbEntity
  8
LC-002-003-MTH-0
 62
     7
370
    25
100
AcDbLine
 10
886.42937
 20
1420.2
 30
0.0
 11
886.42937
 21
1285.0
 31
0.0
  0
LINE
  5
12F
102
{ACAD_REACTORS
330
15D
102
}
330
1F
100
AcDbEntity
  8
LC-002-003-MTH-0
 62
     7
370
    25
100
AcDbLine
 10
1258.62937
 20
1420.2
 30
0.0
 11
1258.62937
 21
1285.0
 31
0.0
  0
LINE
  5
130
102
{ACAD_REACTORS
330
15D
102
}
330
1F
100
AcDbEntity
  8
LC-003-003-MTG-0
 62
     7
370
    25
100
AcDbLine
 10
886.42937
 20
1300.0
 30
0.0
 11
1258.62937
 21
1300.0
 31
0.0
  0
LINE
  5
131
102
{ACAD_REACTORS
330
15D
102
}
330
1F
100
AcDbEntity
  8
LC-004-003-----0
 62
     7
370
    25
100
AcDbLine
 10
911.215492
 20
1303.263155
 30
0.0
 11
886.42937
 21
1300.0
 31
0.0
  0
LINE
  5
132
102
{ACAD_REACTORS
330
15D
102
}
330
1F
100
AcDbEntity
  8
LC-004-003-----0
 62
     7
370
    25
100
AcDbLine
 10
886.42937
 20
1300.0
 30
0.0
 11
911.215492
 21
1296.736845
 31
0.0
  0
LINE
  5
133
102
{ACAD_REACTORS
330
15D
102
}
330
1F
100
AcDbEntity
  8
LC-004-003-----0
 62
     7
370
    25
100
AcDbLine
 10
911.215492
 20
1296.736845
 30
0.0
 11
911.215492
 21
1303.263155
 31
0.0
  0
LINE
  5
134
102
{ACAD_REACTORS
330
15D
102
}
330
1F
100
AcDbEntity
  8
LC-004-003-----0
 62
     7
370
    25
100
AcDbLine
 10
911.271101
 20
1302.414735
 30
0.0
 11
892.92937
 21
1300.0
 31
0.0
  0
LINE
  5
135
102
{ACAD_REACTORS
330
15D
102
}
330
1F
100
AcDbEntity
  8
LC-004-003-----0
 62
     7
370
    25
100
AcDbLine
 10
892.92937
 20
1300.0
 30
0.0
 11
911.271101
 21
1297.585265
 31
0.0
  0
LINE
  5
136
102
{ACAD_REACTORS
330
15D
102
}
330
1F
100
AcDbEntity
  8
LC-004-003-----0
 62
     7
370
    25
100
AcDbLine
 10
911.326709
 20
1301.566314
 30
0.0
 11
899.42937
 21
1300.0
 31
0.0
  0
LINE
  5
137
102
{ACAD_REACTORS
330
15D
102
}
330
1F
100
AcDbEntity
  8
LC-004-003-----0
 62
     7
370
    25
100
AcDbLine
 10
899.42937
 20
1300.0
 30
0.0
 11
911.326709
 21
1298.433686
 31
0.0
  0
LINE
  5
138
102
{ACAD_REACTORS
330
15D
102
}
330
1F
100
AcDbEntity
  8
LC-004-003-----0
 62
     7
370
    25
100
AcDbLine
 10
911.382317
 20
1300.717894
 30
0.0
 11
905.929371
 21
1300.0
 31
0.0
  0
LINE
  5
139
102
{ACAD_REACTORS
330
15D
102
}
330
1F
100
AcDbEntity
  8
LC-004-003-----0
 62
     7
370
    25
100
AcDbLine
 10
905.929371
 20
1300.0
 30
0.0
 11
911.382317
 21
1299.282106
 31
0.0
  0
LINE
  5
13A
102
{ACAD_REACTORS
330
15D
102
}
330
1F
100
AcDbEntity
  8
LC-004-003-----0
 62
     7
370
    25
100
AcDbLine
 10
1233.843248
 20
1296.736845
 30
0.0
 11
1258.62937
 21
1300.0
 31
0.0
  0
LINE
  5
13B
102
{ACAD_REACTORS
330
15D
102
}
330
1F
100
AcDbEntity
  8
LC-004-003-----0
 62
     7
370
    25
100
AcDbLine
 10
1258.62937
 20
1300.0
 30
0.0
 11
1233.843248
 21
1303.263155
 31
0.0
  0
LINE
  5
13C
102
{ACAD_REACTORS
330
15D
102
}
330
1F
100
AcDbEntity
  8
LC-004-003-----0
 62
     7
370
    25
100
AcDbLine
 10
1233.843248
 20
1303.263155
 30
0.0
 11
1233.843248
 21
1296.736845
 31
0.0
  0
LINE
  5
13D
102
{ACAD_REACTORS
330
15D
102
}
330
1F
100
AcDbEntity
  8
LC-004-003-----0
 62
     7
370
    25
100
AcDbLine
 10
1233.78764
 20
1297.585265
 30
0.0
 11
1252.12937
 21
1300.0
 31
0.0
  0
LINE
  5
13E
102
{ACAD_REACTORS
330
15D
102
}
330
1F
100
AcDbEntity
  8
LC-004-003-----0
 62
     7
370
    25
100
AcDbLine
 10
1252.12937
 20
1300.0
 30
0.0
 11
1233.78764
 21
1302.414735
 31
0.0
  0
LINE
  5
13F
102
{ACAD_REACTORS
330
15D
102
}
330
1F
100
AcDbEntity
  8
LC-004-003-----0
 62
     7
370
    25
100
AcDbLine
 10
1233.732032
 20
1298.433686
 30
0.0
 11
1245.62937
 21
1300.0
 31
0.0
  0
LINE
  5
140
102
{ACAD_REACTORS
330
15D
102
}
330
1F
100
AcDbEntity
  8
LC-004-003-----0
 62
     7
370
    25
100
AcDbLine
 10
1245.62937
 20
1300.0
 30
0.0
 11
1233.732032
 21
1301.566314
 31
0.0
  0
LINE
  5
141
102
{ACAD_REACTORS
330
15D
102
}
330
1F
100
AcDbEntity
  8
LC-004-003-----0
 62
     7
370
    25
100
AcDbLine
 10
1233.676423
 20
1299.282106
 30
0.0
 11
1239.12937
 21
1300.0
 31
0.0
  0
LINE
  5
142
102
{ACAD_REACTORS
330
15D
102
}
330
1F
100
AcDbEntity
  8
LC-004-003-----0
 62
     7
370
    25
100
AcDbLine
 10
1239.12937
 20
1300.0
 30
0.0
 11
1233.676423
 21
1300.717894
 31
0.0
  0
TEXT
  5
143
102
{ACAD_REACTORS
330
15D
102
}
330
1F
100
AcDbEntity
  8
LC-004-003-----0
 62
     7
370
    25
100
AcDbText
 10
970.847026
 20
1315.0
 30
0.0
 40
25.0
  1
370 (14.57")
 41
0.7
  7
LCTX0-400-0-0pDIN-Schrift
 72
     1
 11
1060.013693
 21
1315.0
 31
0.0
100
AcDbText
  0
LINE
  5
144
102
{ACAD_REACTORS
330
15C
102
}
330
1F
100
AcDbEntity
  8
LC-002-003-MTH-0
 62
     7
370
    25
100
AcDbLine
 10
1238.62937
 20
1400.2
 30
0.0
 11
1415.0
 21
1400.2
 31
0.0
  0
LINE
  5
145
102
{ACAD_REACTORS
330
15C
102
}
330
1F
100
AcDbEntity
  8
LC-002-003-MTH-0
 62
     7
370
    25
100
AcDbLine
 10
1238.62937
 20
1817.0
 30
0.0
 11
1415.0
 21
1817.0
 31
0.0
  0
LINE
  5
146
102
{ACAD_REACTORS
330
15C
102
}
330
1F
100
AcDbEntity
  8
LC-003-003-MTG-0
 62
     7
370
    25
100
AcDbLine
 10
1400.0
 20
1400.2
 30
0.0
 11
1400.0
 21
1817.0
 31
0.0
  0
LINE
  5
147
102
{ACAD_REACTORS
330
15C
102
}
330
1F
100
AcDbEntity
  8
LC-004-003-----0
 62
     7
370
    25
100
AcDbLine
 10
1396.736845
 20
1424.986122
 30
0.0
 11
1400.0
 21
1400.2
 31
0.0
  0
LINE
  5
148
102
{ACAD_REACTORS
330
15C
102
}
330
1F
100
AcDbEntity
  8
LC-004-003-----0
 62
     7
370
    25
100
AcDbLine
 10
1400.0
 20
1400.2
 30
0.0
 11
1403.263155
 21
1424.986122
 31
0.0
  0
LINE
  5
149
102
{ACAD_REACTORS
330
15C
102
}
330
1F
100
AcDbEntity
  8
LC-004-003-----0
 62
     7
370
    25
100
AcDbLine
 10
1403.263155
 20
1424.986122
 30
0.0
 11
1396.736845
 21
1424.986122
 31
0.0
  0
LINE
  5
14A
102
{ACAD_REACTORS
330
15C
102
}
330
1F
100
AcDbEntity
  8
LC-004-003-----0
 62
     7
370
    25
100
AcDbLine
 10
1397.585265
 20
1425.04173
 30
0.0
 11
1400.0
 21
1406.7
 31
0.0
  0
LINE
  5
14B
102
{ACAD_REACTORS
330
15C
102
}
330
1F
100
AcDbEntity
  8
LC-004-003-----0
 62
     7
370
    25
100
AcDbLine
 10
1400.0
 20
1406.7
 30
0.0
 11
1402.414735
 21
1425.04173
 31
0.0
  0
LINE
  5
14C
102
{ACAD_REACTORS
330
15C
102
}
330
1F
100
AcDbEntity
  8
LC-004-003-----0
 62
     7
370
    25
100
AcDbLine
 10
1398.433686
 20
1425.097339
 30
0.0
 11
1400.0
 21
1413.2
 31
0.0
  0
LINE
  5
14D
102
{ACAD_REACTORS
330
15C
102
}
330
1F
100
AcDbEntity
  8
LC-004-003-----0
 62
     7
370
    25
100
AcDbLine
 10
1400.0
 20
1413.2
 30
0.0
 11
1401.566314
 21
1425.097339
 31
0.0
  0
LINE
  5
14E
102
{ACAD_REACTORS
330
15C
102
}
330
1F
100
AcDbEntity
  8
LC-004-003-----0
 62
     7
370
    25
100
AcDbLine
 10
1399.282106
 20
1425.152947
 30
0.0
 11
1400.0
 21
1419.7
 31
0.0
  0
LINE
  5
14F
102
{ACAD_REACTORS
330
15C
102
}
330
1F
100
AcDbEntity
  8
LC-004-003-----0
 62
     7
370
    25
100
AcDbLine
 10
1400.0
 20
1419.7
 30
0.0
 11
1400.717894
 21
1425.152947
 31
0.0
  0
LINE
  5
150
102
{ACAD_REACTORS
330
15C
102
}
330
1F
100
AcDbEntity
  8
LC-004-003-----0
 62
     7
370
    25
100
AcDbLine
 10
1403.263155
 20
1792.213878
 30
0.0
 11
1400.0
 21
1817.0
 31
0.0
  0
LINE
  5
151
102
{ACAD_REACTORS
330
15C
102
}
330
1F
100
AcDbEntity
  8
LC-004-003-----0
 62
     7
370
    25
100
AcDbLine
 10
1400.0
 20
1817.0
 30
0.0
 11
1396.736845
 21
1792.213878
 31
0.0
  0
LINE
  5
152
102
{ACAD_REACTORS
330
15C
102
}
330
1F
100
AcDbEntity
  8
LC-004-003-----0
 62
     7
370
    25
100
AcDbLine
 10
1396.736845
 20
1792.213878
 30
0.0
 11
1403.263155
 21
1792.213878
 31
0.0
  0
LINE
  5
153
102
{ACAD_REACTORS
330
15C
102
}
330
1F
100
AcDbEntity
  8
LC-004-003-----0
 62
     7
370
    25
100
AcDbLine
 10
1402.414735
 20
1792.15827
 30
0.0
 11
1400.0
 21
1810.5
 31
0.0
  0
LINE
  5
154
102
{ACAD_REACTORS
330
15C
102
}
330
1F
100
AcDbEntity
  8
LC-004-003-----0
 62
     7
370
    25
100
AcDbLine
 10
1400.0
 20
1810.5
 30
0.0
 11
1397.585265
 21
1792.15827
 31
0.0
  0
LINE
  5
155
102
{ACAD_REACTORS
330
15C
102
}
330
1F
100
AcDbEntity
  8
LC-004-003-----0
 62
     7
370
    25
100
AcDbLine
 10
1401.566314
 20
1792.102661
 30
0.0
 11
1400.0
 21
1804.0
 31
0.0
  0
LINE
  5
156
102
{ACAD_REACTORS
330
15C
102
}
330
1F
100
AcDbEntity
  8
LC-004-003-----0
 62
     7
370
    25
100
AcDbLine
 10
1400.0
 20
1804.0
 30
0.0
 11
1398.433686
 21
1792.102661
 31
0.0
  0
LINE
  5
157
102
{ACAD_REACTORS
330
15C
102
}
330
1F
100
AcDbEntity
  8
LC-004-003-----0
 62
     7
370
    25
100
AcDbLine
 10
1400.717894
 20
1792.047053
 30
0.0
 11
1400.0
 21
1797.5
 31
0.0
  0
LINE
  5
158
102
{ACAD_REACTORS
330
15C
102
}
330
1F
100
AcDbEntity
  8
LC-004-003-----0
 62
     7
370
    25
100
AcDbLine
 10
1400.0
 20
1797.5
 30
0.0
 11
1399.282106
 21
1792.047053
 31
0.0
  0
TEXT
  5
159
102
{ACAD_REACTORS
330
15C
102
}
330
1F
100
AcDbEntity
  8
LC-004-003-----0
 62
     7
370
    25
100
AcDbText
 10
1385.0
 20
1528.725998
 30
0.0
 40
25.0
  1
416 (16.38")
 50
90.0
 41
0.7
  7
LCTX0-400-0-0pDIN-Schrift
 72
     1
 11
1385.0
 21
1617.892665
 31
0.0
100
AcDbText
  0
ENDSEC
  0
SECTION
  2
OBJECTS
  0
DICTIONARY
  5
C
330
0
100
AcDbDictionary
281
     1
  3
ACAD_GROUP
350
D
  3
ACAD_LAYOUT
350
1A
  3
ACAD_MLINESTYLE
350
17
  3
ACAD_PLOTSETTINGS
350
19
  3
ACAD_PLOTSTYLENAME
350
E
  0
DICTIONARY
  5
D
102
{ACAD_REACTORS
330
C
102
}
330
C
100
AcDbDictionary
281
     1
  3
LCGROUP10
350
15B
  3
LCGROUP15
350
15A
  3
LCGROUP19
350
15D
  3
LCGROUP20
350
15C
  3
LCGROUP82
350
15E
  0
DICTIONARY
  5
1A
102
{ACAD_REACTORS
330
C
102
}
330
C
100
AcDbDictionary
281
     1
  3
Layout1
350
1E
  3
Layout2
350
26
  3
Model
350
22
  0
DICTIONARY
  5
17
102
{ACAD_REACTORS
330
C
102
}
330
C
100
AcDbDictionary
281
     1
  3
Standard
350
18
  0
DICTIONARY
  5
19
102
{ACAD_REACTORS
330
C
102
}
330
C
100
AcDbDictionary
281
     1
  0
ACDBDICTIONARYWDFLT
  5
E
102
{ACAD_REACTORS
330
C
102
}
330
C
100
AcDbDictionary
281
     1
  3
Normal
350
F
100
AcDbDictionaryWithDefault
340
F
  0
GROUP
  5
15B
102
{ACAD_REACTORS
330
D
102
}
330
D
100
AcDbGroup
300
GRP10
 70
     1
 71
     1
340
31
340
32
340
33
340
34
340
35
340
36
340
37
340
38
340
39
340
3A
340
3B
340
3C
340
3D
340
3E
340
3F
340
40
340
41
340
42
340
43
340
44
340
45
340
46
340
47
340
48
340
49
340
4A
340
4B
340
C4
340
C5
340
C6
  0
GROUP
  5
15A
102
{ACAD_REACTORS
330
D
102
}
330
D
100
AcDbGroup
300
GRP15
 70
     1
 71
     1
340
118
340
119
340
11A
340
11B
340
11C
340
11D
340
11E
340
11F
340
120
340
121
340
122
340
123
340
124
340
125
340
126
340
127
340
128
340
129
340
12A
340
12B
340
12C
340
12D
  0
GROUP
  5
15D
102
{ACAD_REACTORS
330
D
102
}
330
D
100
AcDbGroup
300
GRP19
 70
     1
 71
     1
340
12E
340
12F
340
130
340
131
340
132
340
133
340
134
340
135
340
136
340
137
340
138
340
139
340
13A
340
13B
340
13C
340
13D
340
13E
340
13F
340
140
340
141
340
142
340
143
  0
GROUP
  5
15C
102
{ACAD_REACTORS
330
D
102
}
330
D
100
AcDbGroup
300
GRP20
 70
     1
 71
     1
340
144
340
145
340
146
340
147
340
148
340
149
340
14A
340
14B
340
14C
340
14D
340
14E
340
14F
340
150
340
151
340
152
340
153
340
154
340
155
340
156
340
157
340
158
340
159
  0
GROUP
  5
15E
102
{ACAD_REACTORS
330
D
102
}
330
D
100
AcDbGroup
300
GRP82
 70
     1
 71
     1
340
4C
340
4D
340
4E
340
4F
340
50
340
51
340
52
340
53
340
54
340
55
340
56
340
57
340
58
340
59
340
5A
340
5B
340
5C
340
5D
340
5E
340
5F
340
60
340
61
340
62
340
63
340
64
340
65
340
66
340
67
340
68
340
69
340
6A
340
6B
340
6C
340
6D
340
6E
340
6F
340
70
340
71
340
72
340
73
340
74
340
75
340
76
340
77
340
78
340
79
340
7A
340
7B
340
7C
340
7D
340
7E
340
7F
340
80
340
81
340
82
340
83
340
84
340
85
340
86
340
87
340
88
340
89
340
8A
340
8B
340
8C
340
8D
340
8E
340
8F
340
90
340
91
340
92
340
93
340
94
340
95
340
96
340
97
340
98
340
99
340
9A
340
9B
340
9C
340
9D
340
9E
340
9F
340
A0
340
A1
340
A2
340
A3
340
A4
340
A5
340
A6
340
A7
340
A8
340
A9
340
AA
340
AB
340
AC
340
AD
340
AE
340
AF
340
B0
340
B1
340
B2
340
B3
340
B4
340
B5
340
B6
340
B7
340
B8
340
B9
340
BA
340
BB
340
BC
340
BD
340
BE
340
BF
340
C0
340
C1
340
C2
340
C3
  0
LAYOUT
  5
1E
102
{ACAD_REACTORS
330
1A
102
}
330
1A
100
AcDbPlotSettings
  1

  2

  4

  6

 40
0.0
 41
0.0
 42
0.0
 43
0.0
 44
0.0
 45
0.0
 46
0.0
 47
0.0
 48
0.0
 49
0.0
140
0.0
141
0.0
142
1.0
143
1.0
 70
   688
 72
     0
 73
     0
 74
     5
  7

 75
    16
 76
     0
 77
     2
 78
   300
147
1.0
148
0.0
149
0.0
100
AcDbLayout
  1
Layout1
 70
     1
 71
     1
 10
0.0
 20
0.0
 11
2100.0
 21
2970.0
 12
0.0
 22
0.0
 32
0.0
 14
0.0
 24
0.0
 34
0.0
 15
2100.0
 25
2970.0
 35
0.0
146
0.0
 13
0.0
 23
0.0
 33
0.0
 16
1.0
 26
0.0
 36
0.0
 17
0.0
 27
1.0
 37
0.0
 76
     0
330
1B
  0
LAYOUT
  5
26
102
{ACAD_REACTORS
330
1A
102
}
330
1A
100
AcDbPlotSettings
  1

  2

  4

  6

 40
0.0
 41
0.0
 42
0.0
 43
0.0
 44
0.0
 45
0.0
 46
0.0
 47
0.0
 48
0.0
 49
0.0
140
0.0
141
0.0
142
1.0
143
1.0
 70
   688
 72
     0
 73
     0
 74
     5
  7

 75
    16
 76
     0
 77
     2
 78
   300
147
1.0
148
0.0
149
0.0
100
AcDbLayout
  1
Layout2
 70
     1
 71
     2
 10
0.0
 20
0.0
 11
0.0
 21
0.0
 12
0.0
 22
0.0
 32
0.0
 14
0.0
 24
0.0
 34
0.0
 15
0.0
 25
0.0
 35
0.0
146
0.0
 13
0.0
 23
0.0
 33
0.0
 16
1.0
 26
0.0
 36
0.0
 17
0.0
 27
1.0
 37
0.0
 76
     0
330
23
  0
LAYOUT
  5
22
102
{ACAD_REACTORS
330
1A
102
}
330
1A
100
AcDbPlotSettings
  1

  2

  4

  6

 40
0.0
 41
0.0
 42
0.0
 43
0.0
 44
0.0
 45
0.0
 46
0.0
 47
0.0
 48
0.0
 49
0.0
140
0.0
141
0.0
142
1.0
143
1.0
 70
  1776
 72
     0
 73
     0
 74
     0
  7

 75
     0
 76
     0
 77
     2
 78
   300
147
1.0
148
0.0
149
0.0
100
AcDbLayout
  1
Model
 70
     1
 71
     0
 10
0.0
 20
0.0
 11
2100.0
 21
2970.0
 12
0.0
 22
0.0
 32
0.0
 14
0.0
 24
0.0
 34
0.0
 15
2100.0
 25
2970.0
 35
0.0
146
0.0
 13
0.0
 23
0.0
 33
0.0
 16
1.0
 26
0.0
 36
0.0
 17
0.0
 27
1.0
 37
0.0
 76
     0
330
1F
  0
MLINESTYLE
  5
18
102
{ACAD_REACTORS
330
17
102
}
330
17
100
AcDbMlineStyle
  2
Standard
 70
     0
  3

 62
   256
 51
90.0
 52
90.0
 71
     2
 49
0.5
 62
   256
  6
BYLAYER
 49
-0.5
 62
   256
  6
BYLAYER
  0
ACDBPLACEHOLDER
  5
F
102
{ACAD_REACTORS
330
E
102
}
330
E
  0
ENDSEC
  0
EOF
